James Taylor - Country Road Chords & Tabs

 

Country Road Chords & Tabs

James Taylor Chords & Tabs

Version: 1 Type: Tab

Country Road Tab

   
----------------------------------------------------------------------------
			     Country Road - James Taylor
----------------------------------------------------------------------------

Tabbed by:MCiccone

Email:Mcdaddy0945@aol.com

Tuning: Standard, Capo 2nd Fret

I was surprised to see that there wasnt many tabs for this song, its pretty easy

He plays this for the intro and most of the song in the verses:

[ Tab from: http://www.guitartabs.cc/tabs/j/james_taylor/country_road_tab.html ]
           D                   C C   G  
e|---------0h2----3-2-0----0h2-------3*------------------------------------|
B|---------3-------------3-----1-1---3*------------------------------------|
G|------0--0h2--2--------------0-0---0*------------------------------------|
D|---0*------------------------2-2---0*------------------------------------|
A|-----------------------------3-3---2*------------------------------------|
E|-----------------------------------3*------------------------------------|

* - Let Ring
h - Hammer on

Pretty basic, just pretty much hold D for the first part.

Enjoy!