James Judd - Step Up Chords & Tabs

 

Step Up Chords & Tabs

James Judd Chords & Tabs

Version: 1 Type: Tab 0 ratings
1 star 2 stars 3 stars 4 stars 5 stars
comments

Step Up Tab

   
            "Step Up"
                 Written and Performed by: James Judd
                       Tabbed By: James Judd


Intro:

E----------------------------
B----------------------------
G----------------------------
D----------------------------
A----------------------------
E--0h2-2p0-2-5-2-0-0h2-2p0-2-

Verse

E--------------------------------------------------------------------------
B--------------------------------------------------------------------------
G--------------------------------------------------------------------------
D--4-4-4-4-4-4-4-4-4-4-4-4-4-4-4-4-4-4-4-4-4-4-4-4-4-4-4-4-4-4-4-4-4-4-4-4-
A--4-4-4-4-4-4-4-4-4-4-4-4-4-4-4-4-4-4-4-4-4-4-4-4-4-4-4-4-4-4-4-4-4-4-4-4-
E--2-2-2-2-2-0-2-0-2-2-2-2-2-2-0-2-0-2-2-2-2-2-2-0-2-0-2-2-2-2-2-2-0-2-0-2-

E----------------------------
B----------------------------
G----------------------------
D-4-4-2-4-4--4-4-4p2---------
A-4-4-2-4-4--4-4----4p2------
E-2-2-0-2-2--2-2-------0h2/4-

Repeat in 2nd verse

Chorus: 
E------------------------------------------------
B------------------------------------------------
G---------------------------------4-4-4-4-7-7-7-7
D---------------------------------4-4-4-4-7-7-7-7
A---------------------------------2-2-2-2-5-5-5-5
E-0h2-2p0-2-5-2p0-0h2-2p0-2-5-2p0----------------

E------------------------------------------------
B------------------------------------------------
G---------------------------------4-4-4-4-7-7-7-7
D---------------------------------4-4-4-4-7-7-7-7
A---------------------------------2-2-2-2-5-5-5-5
E-0h2-2p0-2-5-2p0-0h2-2p0-2-5-2p0----------------

E------------------------------------------------------------
B------------------------------------------------------------
G------------------------------------------------------------
D------------------------------------------------------------
A------------------------------------------2-------------2---
E-0h2-2p0-2-5-2p0-0h2-2p0-2-5-2p0-2h4-4p2-4-4p2-2h4-4p2-4-4p2

E---------------------------
B---------------------------
G---------------------------
D---------------------------
A---------------------------
E-0h2-2p0-2-5-2p0-0h2-2p0-2-

Verse

E--------------------------------------------------------------------------
B--------------------------------------------------------------------------
G--------------------------------------------------------------------------
D--4-4-4-4-4-4-4-4-4-4-4-4-4-4-4-4-4-4-4-4-4-4-4-4-4-4-4-4-4-4-4-4-4-4-4-4-
A--4-4-4-4-4-4-4-4-4-4-4-4-4-4-4-4-4-4-4-4-4-4-4-4-4-4-4-4-4-4-4-4-4-4-4-4-
E--2-2-2-2-2-0-2-0-2-2-2-2-2-2-0-2-0-2-2-2-2-2-2-0-2-0-2-2-2-2-2-2-0-2-0-2-

E----------------------------
B----------------------------
G----------------------------
D-4-4-2-4-4--4-4-4p2---------
A-4-4-2-4-4--4-4----4p2------
E-2-2-0-2-2--2-2-------0h2/4-

Chorus: 
E------------------------------------------------
B------------------------------------------------
G---------------------------------4-4-4-4-7-7-7-7
D---------------------------------4-4-4-4-7-7-7-7
A---------------------------------2-2-2-2-5-5-5-5
E-0h2-2p0-2-5-2p0-0h2-2p0-2-5-2p0----------------
[ Tab from: http://www.guitartabs.cc/tabs/j/james_judd/step_up_tab.html ]
E------------------------------------------------
B------------------------------------------------
G---------------------------------4-4-4-4-7-7-7-7
D---------------------------------4-4-4-4-7-7-7-7
A---------------------------------2-2-2-2-5-5-5-5
E-0h2-2p0-2-5-2p0-0h2-2p0-2-5-2p0----------------

E------------------------------------------------------------
B------------------------------------------------------------
G------------------------------------------------------------
D------------------------------------------------------------
A------------------------------------------2-------------2---
E-0h2-2p0-2-5-2p0-0h2-2p0-2-5-2p0-2h4-4p2-4-4p2-2h4-4p2-4-4p2

E---------------------------
B---------------------------
G---------------------------
D---------------------------
A---------------------------
E-0h2-2p0-2-5-2p0-0h2-2p0-2-

Solo
E----------------------------------------------------------------------
B-5h7-7p5h7-7p5h7-10-7p5-5h7-7p5h7-7p5h7-10-7p5--7h9-9p7h9-9p7h9-12-9p7
G----------------------------------------------------------------------
D----------------------------------------------------------------------
A----------------------------------------------------------------------
E-----------------------------------------------------------------------

E-----------------------------------------12----15br-15br-17-15--------
B-7h9-9p7h9-9p7h9-12-9p7-5h7-7p5h7-7p5h12b--12r----------------17-15-17
G----------------------------------------------------------------------
D----------------------------------------------------------------------
A----------------------------------------------------------------------
E----------------------------------------------------------------------

E---------17-19br-14-17
B-19p17h19-------------
G----------------------
D----------------------  End Of Solo
A----------------------
E----------------------

Bridge:
F#
Two of lying on the ground     
G#
And Silence is the only sound

E----------
B----------
G----------
D----------
A----------
E-0h2-2p0h2

Till someone screams

Chorus: 
E------------------------------------------------
B------------------------------------------------
G---------------------------------4-4-4-4-7-7-7-7
D---------------------------------4-4-4-4-7-7-7-7
A---------------------------------2-2-2-2-5-5-5-5
E-0h2-2p0-2-5-2p0-0h2-2p0-2-5-2p0----------------

E------------------------------------------------
B------------------------------------------------
G---------------------------------4-4-4-4-7-7-7-7
D---------------------------------4-4-4-4-7-7-7-7
A---------------------------------2-2-2-2-5-5-5-5
E-0h2-2p0-2-5-2p0-0h2-2p0-2-5-2p0----------------

E------------------------------------------------------------
B------------------------------------------------------------
G------------------------------------------------------------
D------------------------------------------------------------
A------------------------------------------2-------------2---
E-0h2-2p0-2-5-2p0-0h2-2p0-2-5-2p0-2h4-4p2-4-4p2-2h4-4p2-4-4p2

                         F#
E---------------------------
B---------------------------
G---------------------------
D-------------------------4-
A-------------------------4-
E-0h2-2p0-2-5-2p0-0h2-2p0-2-


Comments