James Judd - How You Make Me Feel Chords & Tabs

 

How You Make Me Feel Chords & Tabs

James Judd Chords & Tabs

Version: 1 Type: Tab 0 ratings
1 star 2 stars 3 stars 4 stars 5 stars
comments

How You Make Me Feel Tab

   
                                       How You Make Me Feel
                                       Written and Tabbed By:
                                            James Judd

Intro
e---------------------------------
B---------------------------------
G---------------------------------
D---2---7---2---9---2---7---8-----
A--2-2-7-7-2-2-9-9-2-2-7-7-6--9-7-
E-0---5---0---7---0---5------7-5-- then in chords E-A-E-B-E-A-C#m-B-A

Do the same for verse 1 then chords for verse to

Bridge:F#m                  A 
        And words cannot describe

Chorus:E               B
       How you make me feel
G#                 A
How your words can heal
E       B                  G#    A
How you know exactly whats on my mind
E                          B
How you make my heart beat fast
G#                         A
How you make my heart beat slow
E       B                     G#        E
How you know exactly what I'm feeling inside
[ Tab from: http://www.guitartabs.cc/tabs/j/james_judd/how_you_make_me_feel_tab.html ]
Break:Bm7      F#
      Before I do
A        E
Before I do
Bm7      F#            A     E
You know exactly whats on my mind
Bm7         F#
I love your eyes
A          E
I love you smile
Bm7            F#           A       E
I love how you know what im feeling inside

Solo
e---------------------------------
B---------------------------------
G---------------------------------x2 then 
D---2---7---2---9---2---7---8-----
A--2-2-7-7-2-2-9-9-2-2-7-7-6--9-7-
E-0---5---0---7---0---5------7-5-- 

e-7-7-7--7-9-7-7-7--7-7-7--7-12-------------------12*-14-12----------------------
B-7-7-7--7-9-7-7-7--7-7-7--7-12-------------13-15-----------15-13----------------
G-7-7-7--7-9-7-7-7--7-7-7--7-12-------12-14-----------------------14-12----------
D-7-7-7--7-9-7-7-7--7-7-7--7-12-12-14-----------------------------------14p12h14-
A--------------------------------------------------------------------------------
E--------------------------------------------------------------------------------

Outro
e--------------------
B--------------------
G-----------------1*-
D---2---7---8-----2*-
A--2-2-7-7-6--9-7-2*-
E-0---5------7-5--0*let ring

The structure of the song goes
Intro
V.1+V.2 (Same as intro)
Bridge
Chorus
V.3+V.4 (Same as intro)
Bridge
Chorus
Break
Solo
Chorus
Outro
Comments