James Gang - Walk Away Chords & Tabs

 

Walk Away Chords & Tabs

James Gang Chords & Tabs

Version: 3 Type: Tab

Walk Away Tab

Walk Away
James Gang (joe Walsh)

1/2 step down

intro/verse
e-------------|
b--2-2--2-3-2-|
g--2-2--2-2-2-|
d--2-2--2---2-|
a-------------|
E-------------|


chorus
e------------------------------|
b------------------------------|
g--11--11--11--11--11--7--7--7-|
d--11--11--11--11--11--7--7--7-|
a---9---9---9---9---9--5--5--5-|
E------------------------------|
[ Tab from: http://www.guitartabs.cc/tabs/j/james_gang/walk_away_tab_ver_3.html ]
e---------------------------------------|
b---------------------------------------|
g--11--11--11--11--11--7--7--7--9--9--9-|
d--11--11--11--11--11--7--7--7--9--9--9-|
a---9---9---9---9---9--5--5--5--7--7--7-|
E---------------------------------------|


exit of chorus
e---------------------|
b---------------------|
g--2-2---4----5-5---4-|
d--2-2---4----5-5---4-|
a--0-0---2----3-3---2-|
E---------------------|


play intro/verse behind solo

play chorus again

play exit of chorus to end