James Gang - Funk 49 Chords & Tabs

 

Funk 49 Chords & Tabs

James Gang Chords & Tabs

Version: 4 Type: Tab 0 ratings
1 star 2 stars 3 stars 4 stars 5 stars
comments

Funk 49 Tab

-Funk 49
-by: the James Gang

key:
 b-after fret=bend
 b-before fret=release bend
 /slide up
 \slide down
this song is in standard tuning, of corse.
 intro                                    this is the verse also
|----------------------------------------|--------------------|
|-----8----0---------------------------xx|7-5---7h8-7-7--7-5--|
|--7b---b7-5-[b7-b7-b7]--7p5p0------2--xx|7-5h6-7---7-7--7-5h6|x4
|-----------------------------7p5p0-2--xx|7-5---7h9-7-7--7-5--|
|-----------------------------------0----|--------------------|
|----------------------------------------|--------------------|
[in the part that's bracketed, you let of the bend just a 
little bit each time you pick it. if you listen to the song,
you will understand wat im talkin about and all this will fall
into place]


then this little riff comes in... 
|--------------------------------|
|--------------------------------|
|--------------------------------|
|-7p5-------------7-7p5----------|
|----7-5-3--------7----7-5-3-----|
|---------3/5--xx-5---------3/5~-|

|--------------------------------|
|--------------------------------|
|--------------------------------|
|-7p5----------xx-7-7p5----------|
|----7-5-3-----xx-7----7-5-3-----|
|---------3/5--xx-5---------3/5~-|

|--------------------------------|
|--------------------------------|
|--------------------------------|
|-9p7----------xx-9-9p7----------|
|----9-7-5-----xx-9----9-7-5-----|
|---------5/7--xx-7---------5/7~-|

|----------------------------------|
|--------------------------------8-|
|--------------------------------7-|
|-9p7----------xx-9-9p7----------6-|
|----9-7-5-----xx-9----9-7-5-----7-|
|---------5/7--xx-7---------5/7--0-|
[ Tab from: http://www.guitartabs.cc/tabs/j/james_gang/funk_49_tab_ver_4.html ]
then there is a little spot where they 
play these weird soundin drums while some
dude in the backgound yells and stuff, and then
the solo(my favorite part) comes in.
|-----------|-b10--8-----|---------------------|
|-------5---|-------10---|--7-5---7--7x7-7-5---|
|---2---5---|------------|--7-5h6-7--7x7-7-5h6-|
|---2---5--0|------------|--7-5---7--7x7-7-5---|
|-0-0------5|------------|---------------------|
|-----------|------------|---------------------|

|--------------------------|
|-5---7-5---7h8-7-7--7-5---|
|-5h6-7-5h6-7---7-7--7-5h6-|
|-5---7-5---7h9-7-7--7-5---|
|--------------------------|
|--------------------------|

then they play this riff as the song fades out.
|--------------------------------|
|--------------------------------|
|--------------------------------|
|-7p5-------------7-7p5----------|
|----7-5-3--------7----7-5-3-----|
|---------3/5--xx-5---------3/5~-|

|--------------------------------|
|--------------------------------|
|--------------------------------|
|-7p5----------xx-7-7p5----------|
|----7-5-3-----xx-7----7-5-3-----|
|---------3/5--xx-5---------3/5~-|

|--------------------------------|
|--------------------------------|
|--------------------------------|
|-9p7----------xx-9-9p7----------|
|----9-7-5-----xx-9----9-7-5-----|
|---------5/7--xx-7---------5/7~-|

|----------------------------------|
|--------------------------------8-|
|--------------------------------7-|
|-9p7----------xx-9-9p7----------6-|
|----9-7-5-----xx-9----9-7-5-----7-|
|---------5/7--xx-7---------5/7--0-|

well, thats the whole song. i hope its right because
i've spent hours experementing the notes and such. if 
you spot somthin wrong with it, e-mail me at haydensworld@chater.net.
and my screen name for aim is uccsk8itorloveit. thank you and
enjoy.
Comments