James Gang - Funk 49 Chords & Tabs

 

Funk 49 Chords & Tabs

James Gang Chords & Tabs

Version: 3 Type: Tab 0 ratings
1 star 2 stars 3 stars 4 stars 5 stars
comments

Funk 49 Tab

   
SONG NAME - Funk 49         James Gang
Tabbed by     jimoc1964
Tuning:  Standard
The intro and some additions to the other tabs here
e|-------------------------------------------------------------------------|
B|----------8--------------------------------------------------------------|
G|---7-^-9-----9-^-7------5-~~~--7-^-9-^-8-^-7---7------7--5--0------------|
D|----------------------------------------------------------------7--5--0--|
A|-------------------------------------------------------------------------|
E|-------------------------------------------------------------------------|
   ^Bend, hold and release      ^Bend and release slowly back to pitch

e|-------------------------------------------------------------------------|
B|---------7----5-----------7-h-8---7--------7----5------------------------|
G|--/-6~~--7----5-h-6-------7-------7--------7----5-h-6--------------------|
D|---------7----5-----------7-h-9---7--------7----5------------------------|
A|-------------------------------------------------------------------------|
E|---------------------------------------------------------------5-\-------|
[ Tab from: http://www.guitartabs.cc/tabs/j/james_gang/funk_49_tab_ver_3.html ]
e|-------------------------------------------------------------------------|
B|---5----------7----5-----------7-h-8---7--------7----5-------------------|
G|---5-h-6------7----5-h-6-------7-------7--------7----5-h-6---------------|
D|---5----------7----5-----------7-h-9---7--------7----5-------------------|
A|-------------------------------------------------------------------------|
E|---------------------------------------------------------------5--\------|

e|------------------------------------^-12-^-10------8---------------------|
B|-------X---X---X-----5-~-------------------------------10-----7----5-----|
G|---2---X---X---X-----5-~---0----------------------------------7----5-----|
D|---2---X---X---X-----5-~---5-~~-------------------------------7----5-----|
A|---0---X---X---X---------------------------------------------------------|
E|-------------------------------------------------------------------------|
^ Guitar break,   following Drum break ^

e|-------------------------------------------------------------------------|
B|-------------------------7----5----------7-------7----5------------------|
G|---2---X---X---X---X-X---7----5-h-6------7-------7----5-h-6--------------|
D|---2---X---X---X---X-X---7----5----------7-------7----5------------------|
A|---0---X---X---X---X-X---------------------------------------------------|
E|------------------------------------------------------------------5--\---|
        ^   Repeat again before going back to the verse rhythm

| / slide up
| \ slide down
| h hammer-on
| p pull-off
| ~ vibrato
| + harmonic
| x Mute note
Comments