James Blunt - Cry Chords & Tabs

 

Cry Chords & Tabs

James Blunt Chords & Tabs

Version: 1 Type: Tab 0 ratings
1 star 2 stars 3 stars 4 stars 5 stars
comments

Cry Tab

   

This is my first tab ever but I think that it is pretty spot on.

Intro:       --------------------------------------------------------|
             --------------------------------------------------------|
             --------------------------------------------------------|  X2
             -----9---7---9-------9---7---9-------9---7---9>11-------|
             -9----------------9---------------9------------------7--|
             --------------------------------------------------------|

              Em    Bm    C     D
First Verse: -0-----2-----------2----------------------|
             -0-----2-----1-----3----------------------|
             -0-----3-----0-----2----------------------| X2
             -2-----4-----2----------------------------|
             -2-----4-----3----------------------------|
             -0-----2----------------------------------|


Chorus
              G     Bm    Em    C    G D    C   G
             -3-----2-----0----------3-2--------3-------|
             -3-----2-----0-----1----3-3----1---3-------|
             -0-----3-----0-----0----0-2----0---0-------|
             -0-----4-----2-----2----0------2---0-------|
             -2-----4-----2-----3----2------3---2-------|
             -3-----2-----0----------3----------3-------|

[ Tab from: http://www.guitartabs.cc/tabs/j/james_blunt/cry_tab.html ]
                     Play the G and D are on the word "Cry"


                     Em    Bm    C     D
Second Verse        -0-----2-----------2----------------------|
                    -0-----2-----1-----3----------------------|
                    -0-----3-----0-----2----------------------| X2
                    -2-----4-----2----------------------------|
                    -2-----4-----3----------------------------|
                    -0-----2----------------------------------|

Chorus
              G     Bm    Em    C    G D    C   G
             -3-----2-----0----------3-2--------3-------|
             -3-----2-----0-----1----3-3----1---3-------|
             -0-----3-----0-----0----0-2----0---0-------|
             -0-----4-----2-----2----0------2---0-------|
             -2-----4-----2-----3----2------3---2-------|
             -3-----2-----0----------3----------3-------|


                     Play the G and D are on the word "Cry"


Third Verse:   D  G  Em  C  D  G   Bm


Fourth Verse:  Em  Bm  C  D  G  Bm  Em  C

Fifth Verse:   G-D  C  G  G  Bm  Em  C

Last Verse:    G-D  C  G   X2
Comments