James Blunt - Billy Chords & Tabs

 

Billy Chords & Tabs

James Blunt Chords & Tabs

Version: 2 Type: Tab 0 ratings
1 star 2 stars 3 stars 4 stars 5 stars
comments

Billy Tab

Artist - James Blunt
Song   - Billy (intro)
Album  - Back to bedlam
Tabber - Scott brown

Standard tuning
[ Tab from: http://www.guitartabs.cc/tabs/j/james_blunt/billy_tab_ver_2.html ]
e|--------------------------------------------------------------------------|
B|--------------------------------------------------------------------------|
G|-0--8--6--4---------------------------------------------------------------|
D|------------0-6---9--11---9-11--8-----------------------------------------|
A|------------------------9-------------------------------------------------|
E|--------------------------------------------------------------------------|

e|--------------------------------------------------------------------------|
B|--------------------------------------------------------------------------|
G|-0--8--6--4---------------------------------------------------------------|
D|------------0-6---9--11---9-11--8-----4-4--6------------------------------|
A|------------------------9-------------------------------------------------|
E|--------------------------------------------------------------------------|
Comments