James - America Chords & Tabs

 

America Chords & Tabs

James Chords & Tabs

Version: 1 Type: Tab 0 ratings
1 star 2 stars 3 stars 4 stars 5 stars
comments

America Tab

#----------------------------------PLEASE NOTE---------------------------------#
#This file is the author's own work and represents their interpretation of the #
#song. You may only use this file for private study, scholarship, or research. #
#------------------------------------------------------------------------------##
This is the riff for "America", by James

Compiled by Rahlberg@engr.csulb.edu  (Russ Ahlberg)

Suggestions, comments, etc... e-mail me.

Thanks
[ Tab from: http://www.guitartabs.cc/tabs/j/james/america_tab.html ]
e||------------------------------------------------------------------------
B||------------------------------------------------------------------------   
G||>--------------------------0--------------------------------------------    
D||>---2-------2----------------------0--------0-----0--0--4--0--4--5--4--5   
A||---------------0--3--3--3-----------------------------------------------  
E||------------------------------3--3----3--3------------------------------

e|-------------------------------------------------------------------------  
B|-------------------------------------------------------------------------   
G|------------------------------0--------0---------------------------------    
D|---------2--------2--------------------------------0--------0------------    
A|---0--0-----0--0-----0--3--3-----3--3-----3------------------------------  
E|---------------------------------------------3--3-----3--3-----3----------

e|----------------------------|| 
B|----------------------------||     
G|---------------------------
Comments