Jam And Spoon - Kaleidoscope Skies Chords & Tabs

 

Kaleidoscope Skies Chords & Tabs

Jam And Spoon Chords & Tabs

Version: 2 Type: Tab 0 ratings
1 star 2 stars 3 stars 4 stars 5 stars
comments

Kaleidoscope Skies Tab

   
-------------------------------------------------------------------------------
			     Kaleidoscope Skies - Jam&Spoon
-------------------------------------------------------------------------------
Tabbed by:Cracky
Email:Cracky@Freestart.hu
[ Tab from: http://www.guitartabs.cc/tabs/j/jam_and_spoon/kaleidoscope_skies_tab_ver_2.html ]
Tuning:Standard
  G-3x 
e|---3-------------------------------------------------------------------------|
B|---3-------------------------------------------------------------------------|
G|----------------------0-0-2-2-4-5-7-7/9-9-9/12-12-12\5-5-5/9-9-9-0-----------|
D|-----------------------------------------------------------------------------|
A|---2-5p3p2h3-5p3p2h3/10------------------------------------------------------|
E|---3-------------------------------------------------------------------------|
                    0:15                        0:33
e|------------------------------------------------7-8-10----7h8p7--------------|
B|-------------------------------------------------------8~-------8~-----------|
G|---7p5p4h5-7p5p4h5--5--2--0-4-5-7-0-9~--5--2--0------------------------------|
D|-----------------------------------------------------------------------------|
A|-----------------------------------------------------------------------------|
E|-----------------------------------------------------------------------------|
  0:50
e|------------------------------7-8-7h8p7-3-0-3h5--10-10~-8-8~-7---------------|
B|---8-8h10p8-6-5-5h6p5-3---3h5----------------------------------8-------------|
G|------------------------5----------------------------------------------------|
D|-----------------------------------------------------------------------------|
A|-----------------------------------------------------------------------------|
E|-----------------------------------------------------------------------------|
                                             1:31
e|---7-8-10---10h12---7-7~-8-8~-10-10~---10h12------------------7-8-10---------|
B|----------8--------------------------8-------------------------------8~------|
G|----------------------------------------------8/9-12-14\7/9------------------|
D|-----------------------------------------------------------------------------|
A|-----------------------------------------------------------------------------|
E|-----------------------------------------------------------------------------|
  1:48 Solo
e|----------------8-7-8-0-8-7-8\5-8-7-8-0-----3-0-1/10-8-10-5-10-8-10~---------|
B|-----------5-6h8-------------------------------------------------------------|
G|------4-5-7----------------------------4-5-7---------------------------------|
D|-4h5-7-----------------------------------------------------------------------|
A|-----------------------------------------------------------------------------|
E|-----------------------------------------------------------------------------|

e|10p8p7-8-10-8-7-5-----------------8-7-8~-0-8-7-8~\5-8-7-8~-0--------5/10-8-10|
B|------------------8-5---------10-8-------------------------------8-5---------|
G|---------------------7-5-4-5-7------------------------------4-5-7------------|
D|-----------------------------------------------------------------------------|
A|-----------------------------------------------------------------------------|
E|-----------------------------------------------------------------------------|

e|---5-10-8-10---7-10---7------------------------------------------------------|
B|-------------8------8--------------------------------------------------------|
G|-----------------------5-7\4-7-5-4-5-----------------------------------------|
D|-----------------------------------------------------------------------------|
A|-----------------------------------------------------------------------------|
E|-----------------------------------------------------------------------------|
  2:16
e|---7-8-10-7---7-7-5-5h7p5-3-3h5p3-1-0----------------------------------------|
B|---------8----------------------------------------------------10-8-----------|
G|--------------------------------------4-5-7/9~-7-5-4-5~---7/9----------------|
D|-----------------------------------------------------------------------------|
A|-----------------------------------------------------------------------------|
E|-----------------------------------------------------------------------------|

e|---7-8-7---------------------------------------------------------------------|
B|-------8/10-------------------1-3/5------------------------------------------|
G|------------------------0-2-4----------------8h10p8h10~----------------------|
D|-----------------0-1-2-3---------------4-5-7---------------------------------|
A|------------0-2-3------------------------------------------------------------|
E|-----------------------------------------------------------------------------|

| /  slide up
| \  slide down
| h  hammer-on
| p  pull-off
| ~  vibrato
| +  harmonic
| x  Mute note
===============================================================================
Comments