Jam - War Chords & Tabs

 

War Chords & Tabs

Jam Chords & Tabs

Version: 1 Type: Chords 0 ratings
1 star 2 stars 3 stars 4 stars 5 stars
comments

War Chords

   
#----------------------------------PLEASE NOTE---------------------------------#
#This file is the author's own work and represents their interpretation of the #
#song. You may only use this file for private study, scholarship, or research. #
#------------------------------------------------------------------------------#

30th August 2001.

WAR by THE JAM

Written by Whitfield-Strong

B-side to 'Just Who Is The Five O'Clock Hero?'

Chords used:

F#:  x-9-11-11-11-x
Ebm: x68876 or 11-13-13-11-11-11 during the verses.

This is the tab for the intro:
[ Tab from: http://www.guitartabs.cc/tabs/j/jam/war_crd.html ]
           F#      Ebm  F#               F#      Ebm  F#             
--------------|----6-6-------|--------------|----6-6-------|--------
-----------11-|----7-7--11-11|-----------11-|----7-7--11-11|-------- (go
-----------11-|----8-8--11-11|-----------11-|----8-8--11-11|--------  bak
-----------11-|----8-8--11-11|-----------11-|----8-8--11-11|--------  2
-----------9--|----6-6---9-9-|-----------9--|----6-6---9-9-|--------  start)
--------------|--------------|--------------|--------------|--------
        

Repeat the above bit x4

Note:

During the verses -  the Ebm changes slightly like, and I can't say
 for sure what to here are the chords it might be, it could be all
 of them - but it makes playing the verses more interesting anyway!

 Ebm             Eb7sus4        Ebm7           Ebm6         
-11-----------|--11----------|--11------11--|--11----------|--
-11-----------|--11----------|--14------11--|--13----------|--
-11-----------|--13----------|--11------11--|--11----------|--
-13-----------|--11----------|--11--or--11--|--11----------|--
-13-----------|--13----------|---x-------x--|--13----------|--
-11-----------|--11----------|--11------11--|--11----------|--

Hope this is of some help.
Comments