Jam - Town Called Malice Chords & Tabs

 

Town Called Malice Chords & Tabs

Jam Chords & Tabs

Version: 2 Type: Bass Tab 0 ratings
1 star 2 stars 3 stars 4 stars 5 stars
comments

Town Called Malice Bass Tab

"Town Called Malice" by The Jam from THE GIFT
T+M: Weller
Transcrisption by Lee McManus and David Tucker
Suggestions and corrections are always welcome


Intro and Chorus
                                               4x                          
G---||-----------------|--------------------|
D---||*----------------|-------------------*|
A---||*--5--5--5p2-----|--5--5--5p2-----2--*|
E---||--------------5--|-------------5------|

Verse (better stop dreaming...)
G-------------------|-----4-5-4----2---|------------------|
D------4-5-4---2----|------------------|-----4-5-4----2---|
A-------------------|------------------|------------------|
E---2---------------|--0---------------|--2---------------|
[ Tab from: http://www.guitartabs.cc/tabs/j/jam/town_called_malice_btab_ver_2.html ]
G------5-4--2-4-|
D---------------|
A---------------|
E---0-----------|
                                                                        
(and stop apologizing for the things...)                              
G------------------------------------------------------------
D------------------------------------------------------------
A------------------------------------------------------------
E---3--3--3-----3--3--3-----3--3--3---2--2--2---2--2--2---2-2                                                                        

G-------------------------------------------------
D-------------------------------------------------
A---------------------------------------0--4--5---
E---2-----5--5--5-----5--5--5-----5--5------------

Middle bit (a whole streets belief...)
                              
G---|-----------|---------------------------------
D---|-----------|---------------------------------
A---|--4\2/4\2--|---------------------------------
E---|-----------|---------------------------------

tab key :

h = hammer on
p = pull on
/ = slide up
\ = slide down
Comments