Jam - This Is The Modern World Chords & Tabs

 

This Is The Modern World Chords & Tabs

Jam Chords & Tabs

Version: 1 Type: Tab 0 ratings
1 star 2 stars 3 stars 4 stars 5 stars
comments

This Is The Modern World Tab

   
#----------------------------------PLEASE NOTE---------------------------------#
#This file is the author's own work and represents their interpretation of the #
#song. You may only use this file for private study, scholarship, or research. #
#------------------------------------------------------------------------------##
THIS IS THE MODERN WORLD - THE JAM

INTRO

    |A  D A|A  D A|G     |

VERSE

    |C     |G     |C     |F  G  |C     |G     |C     |C7    |

MID EIGHT(i)

    |Am    |F     |Am    |F     |Am    |F     |D     |F  G  |

VERSE

MID EIGHT(ii)

    |Am    |F     |Am    |F     |Am    |F     |D     |G  A  |

CHORUS

    |D     |E     |A     |B  G A|D     |E     |A     |Bm    |G     |G     |G     |G     |

SOLO
[ Tab from: http://www.guitartabs.cc/tabs/j/jam/this_is_the_modern_world_tab.html ]
    |----------10-12--12b14b12--12b14b12--12b14b12--12po10----12b14b12--12b14b12--12po10|
    |-14b16------------------------------------------------12---------------------------|
    |-------13--------------------------------------------------------------------------|
    |-----------------------------------------------------------------------------------|
    |-----------------------------------------------------------------------------------|
    |-----------------------------------------------------------------------------------|

    |----15b16--------------------------------------------------------------------------|
    |12--------14-12-14-12--10--------10--------10------8--10--------10--------10-------|
    |-----------------------12b14b12--12b14b12--12po10-----12b14b12--12b14b12--12po10--7|
    |-----------------------------------------------------------------------------------|
    |-----------------------------------------------------------------------------------|
    |-----------------------------------------------------------------------------------|

    |G     |G     |G     |G     |

VERSE

MID EIGHT(ii)

OUTRO

    |D     |E     |A     |B  G A|D     |E     |A     |A     |A     |A     |D     |E     |
    |A     |Bm    |G     |G     |G     |G     |A  D A|A  D A|A  D A|





Not to sure about the solo, try it and see.

* "two fucks" replaced by "a damn" on single.

Contact address k940372@crystal.king.ac.uk
     
??
Comments