Jam - Thats Entertainment Chords & Tabs

 

Thats Entertainment Chords & Tabs

Jam Chords & Tabs

Version: 1 Type: Bass Tab 0 ratings
1 star 2 stars 3 stars 4 stars 5 stars
comments

Thats Entertainment Bass Tab

Artist: The Jam
Track: That's Entertainment (bass)
Tabbed by: Kayleigh Hirst 12th February 2002

I've tried to get the timing right, but listen to the track to 
get it exact.
Any comments, questions etc. kayleigh@aceofspades.co.uk

G||-------------|-------------------|
D||-------------|-------------------|
A||-------------|-------------------|
E||-------------|-------------3-3-1-|

G|---------------|----------------|---------------|-------------|
D|---------------|----------------|---------------|-------------|
A|-1---1---1-1-3-|----------------|-3---3---3-3-3-|-------------|
E|---------------|-3-3-3-3--3-3-1-|---------------|-4--4--4-4-4-|

G|----------------|----------------|
D|----------------|----------------| 
A|-1---1----1-1-3-|----------------|
E|----------------|-3-3-3-3--3-3-1-|

G|---------------------------|-------------------------|
D|---------------------------|-------------------------| [x4]
A|----1------1------1--1--3--|-------------------------|
E|---------------------------|-3--3--3--3-----3--3--1--|
 
G|----------------|----------------|
D|----------------|----------------| [x2] 
A|-3---3----3-3-3-|----------------|
E|----------------|-4-4-4-4--4-4-4-|

G|----------------|----------------|
D|----------------|----------------| 
A|-1---1----1-1-3-|----------------|
E|----------------|-3-3-3-3--3-3-1-|

G|---------------------------|-------------------------|
D|---------------------------|-------------------------| [x4]
A|-1---3------0---3---0---3--|-------------------------|
E|---------------------------|-3--3--3--3-----3--3--1--|
    
G|----------------|----------------|
D|----------------|----------------| [x2] 
A|-3---3----3-3-3-|----------------|
E|----------------|-4-4-4-4--4-4-4-|

G|----------------|----------------|
D|----------------|----------------| [x2] 
A|-1---1----1-1-3-|----------------|
E|----------------|-3-3-3-3--3-3-1-|

G|---------------------------|-------------------------|
D|---------------------------|-------------------------| [x4]
A|----1------1------1--1--3--|-------------------------|
E|---------------------------|-3--3--3--3-----3--3--1--|
 
G|----------------|----------------|
D|----------------|----------------| [x2] 
A|-3---3----3-3-3-|----------------|
E|----------------|-4-4-4-4--4-4-4-|

G|----------------|----------------|
D|----------------|----------------| 
A|-1---1----1-1-3-|----------------|
E|----------------|-3-3-3-3--3-3-1-|
[ Tab from: http://www.guitartabs.cc/tabs/j/jam/thats_entertainment_btab.html ]
G|---------------------------|-------------------------|
D|---------------------------|-------------------------| [x4]
A|-1---3------0---3---0---3--|-------------------------|
E|---------------------------|-3--3--3--3-----3--3--1--|

G|----------------|----------------|
D|----------------|----------------| [x2] 
A|-3---3----3-3-3-|----------------|
E|----------------|-4-4-4-4--4-4-4-|

G|----------------|----------------|
D|----------------|----------------| [x3]
A|-1---1----1-1-3-|----------------|
E|----------------|-3-3-3-3--3-3-1-|

G|-----------------|----------------|
D|-----------------|----------------| [x2] 
A|-3---3---3-3-3-3-|----------------|
E|-----------------|-4-4-4-4--4-4-4-|

G|----------------|----------------|
D|----------------|----------------| 
A|-1---1----1-1-3-|----------------|
E|----------------|-3-3-3-3--3-3-1-|

G|-------------------------------|-------------------------|
D|-------------------------------|-------------------------| [x4]
A|---1-----3------0---3---0---3--|-------------------------|
E|-------------------------------|-3--3--3--3-----3--3--1--|

G|----------------|----------------|
D|----------------|----------------| [x2] 
A|-3---3----3-3-3-|----------------|
E|----------------|-4-4-4-4--4-4-4-|

G|----------------|----------------|
D|----------------|----------------| 
A|-1---1----1-1-3-|----------------|
E|----------------|-3-3-3-3--3-3-1-|

G|------------------------------|-------------------------|
D|------------------------------|-------------------------| [x4]
A|----1------1-------1---1---3--|-------------------------|
E|------------------------------|-3--3--3--3-----3--3--1--|

G|----------------|----------------|
D|----------------|----------------| [x2] 
A|-3---3----3-3-3-|----------------|
E|----------------|-4-4-4-4--4-4-4-|

The End...

G|----------------|----------------|
D|----------------|----------------| [x3]
A|-1---1----1-1-3-|----------------|
E|----------------|-3-3-3-3--3-3-1-|

G|----------------|----------------|
D|----------------|----------------| 
A|-3---3----3-3-3-|----------------|
E|----------------|-4-4-4-4--4-4-4-|

G|-------------------------------|-------------------------|
D|-------------------------------|-------------------------| [x3]
A|---1-----3------0---3---0---3--|-------------------------|
E|-------------------------------|-3--3--3--3-----3--3--1--|

G|----------------|----------------||
D|----------------|----------------|| 
A|-3---3----3-3-3-|----------------||
E|----------------|-4-4-4-4--4-4-4-||

repeat end to fade............







Comments