Jam - Taking My Love Chords & Tabs

 

Taking My Love Chords & Tabs

Jam Chords & Tabs

Version: 1 Type: Tab 0 ratings
1 star 2 stars 3 stars 4 stars 5 stars
comments

Taking My Love Tab

   
#----------------------------------PLEASE NOTE---------------------------------#
#This file is the author's own work and represents their interpretation of the #
#song. You may only use this file for private study, scholarship, or research. #
#------------------------------------------------------------------------------#


heliocentric@breathe.com
26th December 2000, 7.41pm

TAKIN' MY LOVE 
(Paul Weller)

Chords used:

A:  577655
D:  x5777x
E:  x7999x
C:  x3555x

Riff 1:

  A
--------------|-----------5--
-----5-----5--|-----------5--
--------7-----|--7^-7-----6--
--7-----------|--------7--7--
--------------|--------------
--------------|--------------

A (w/riff 1 x4)
[ Tab from: http://www.guitartabs.cc/tabs/j/jam/taking_my_love_tab.html ]
          Guitar:
   A                                                          D               
--------------|-----------5--|--------------|-----------5--|---------------------|---------------
-----5-----5--|-----------5--|-----5-----5--|-----------5--|-----------7^--------|--7^--------7--
--------7-----|--7^-7-----6--|--------7-----|--7^-7-----6--|--7--7--9------9--7--|------9--7--7--
--7-----------|--------7--7--|--5-----------|--------7--7--|---------------------|---------------
--------------|--------------|--------------|--------------|---------------------|---------------
--------------|--------------|--------------|--------------|---------------------|---------------
 
        A                             E                 D                 A
-----|--------------|-----------5--|-----------------|-----------------|--------------|
--0--|-----5-----5--|-----------5--|-----------------|--7^-7-----7-----|-----5-----5--|
--0--|--------7-----|--7^-7-----6--|--9--9--9--9--9--|--------9-----9--|--------7-----|
-----|--7-----------|--------7--7--|--9--9--9--9--9--|-----------------|--7-----------|
-----|--------------|--------------|--7--7--7--7--7--|-----------------|--------------|
-----|--------------|--------------|-----------------|-----------------|--------------|
 
 E
-----------------|--
-----------------|--
--9--9--9--9--9--|--
--9--9--9--9--9--|--
--7--7--7--7--7--|--
-----------------|--



A (repeat all of guitar solo except the last bar then play:)

-----------5--|     --5--5--|      --5--                          --5\--
-----------5--|     --5--5--|      --5--  hold for two bars with  --5\--
--7^-7-----6--|     --6--6--|      --6--  feedback then...        --6\--
--------7--7--|then --7--7--| (x5) --7--                          --7\--
-----------7--|     --7--7--|      --7--                          --7\--
-----------5--|     --5--5--|      --5--                          --5\--

Hope all of this makes some sense to ya!
Comments