Jam - Strange Town Chords & Tabs

 

Strange Town Chords & Tabs

Jam Chords & Tabs

Version: 1 Type: Bass Tab 1 rating
1 star 2 stars 3 stars 4 stars 5 stars
comments

Strange Town Bass Tab

Strange Town by the Jam.

Intro
g|-------------|
d|-------------|
a|-----2-----2-|
e|-3-5---3-5---|


Main line for verses,
g|-----------------------------------------------------------|
d|*---------------------------------------------------------*|
a|*-3-3-2-3-2-3-2-0-------------------------------0-2---0-2-*|
e|-----------------3-5-3-5-3-0-1-1-0-1-0-1-0-3-3-----3-------|
[ Tab from: http://www.guitartabs.cc/tabs/j/jam/strange_town_btab.html ]
Chorus
g|----------------------|
d|*-----3-------5--3h5-*|
a|*---3---3---5--5-----*|
e|--1--------3--=-------|

"I'm finished with clubs where the music's loud...."
g|-----7/9-7--------------|  |-------------|
d|*------------5/7-5-----*|x2|-------------|
a|*-5----------------7---*|  |-------------|
e|-----------3------------|  |-0-0-0-0-----|

"0h oh..."
g|-------------|
d|-------------|
a|-----0-0--5-5|
e|-0-0---------|

solo bit
g|-----------------------------------|
d|-----------------------------------|
a|-333333-2222222-0000000------------|
e|------------------------33333333---|

Comments