Jam - Start Chords & Tabs

 

Start Chords & Tabs

Jam Chords & Tabs

Version: 2 Type: Bass Tab 0 ratings
1 star 2 stars 3 stars 4 stars 5 stars
comments

Start Bass Tab

   
Artist:-THE JAM
Title:-START!
Tab by:-Loz
e-mail:-lawrenceoxford@hotmail.com
Member of the Bass Tab Archive Tabbing Army
-www.basstabarchive.com

This is my first Tab, so bear with me. I'm not sure which
album this song appears on, but it should be on all the
best of compilations. The song is in 4/4 time, and the
plus signs (+), above the tab correspond roughly with the
beats.

PART 1
   + +   +   +   + +   +   +   + +   +   +   + +   +   +
G|-------------|-------------|---7-----5-7-|---7-----5-7-|
D|---5-----3-5-|---5-----3-5-|-----5h7-----|-----5h7-----|
A|-----3h5-----|-----3h5-----|-5-----------|-5-----------|
E|-3-----------|-3-----------|-------------|-------------|


PART 2
   + +   +  +    +  +    +  +     + +   +  +    + +   +  +
G|-------------|----------------|-------------|---7-----5-7-|
D|---9-----7-9-|---10------8-10-|---9-----7-9-|-----5h7-----|
A|-----7h9-----|------8h10------|-----7h9-----|-5-----------|
E|-7-----------|-8--------------|-7-----------|-------------|

                            + +   +   +     + +   +   +
                         G|---9-----7-7h9-|---9-----7-9-|
Repeat first 3 bars of   D|-----7h9-------|-----7h9-----|
PART 2, and then play:-  A|-7-------------|-7-----------|
                         E|---------------|-------------|
[ Tab from: http://www.guitartabs.cc/tabs/j/jam/start_btab_ver_2.html ]
BRIDGE
     +   +   +   +     +   +   +   +     +   +   +   +
G|-----------------|-----------------|-----------------|
D|-----------------|-------------5-7-|-----------------|
A|-------------4-4-|-5-5-7-7-8-8-----|-------------4-4-|
E|-5-5-7-7-8-8-----|-----------------|-5-5-7-7-8-8-----|

     +   +   +   +
G|-----------------|
D|-----------------|
A|-5-5-3-3-2-2-0-0-|
E|-----------------|

Now repeat the whole lot (eg PARTS 1&2 and BRIDGE)
                         + +   +   +
Then part one again   G|-----------5---|
but replace the       D|---5-----3---3-|
first bar with this:- A|-----3h5-------|
                      E|-3-------------|

MIDDLE 8
   + + +  +    + + +  +             + + + +   + + + +
G|-----------|-----------| Repeat |---------|---------|
D|---7-----7-|---8-----8-| twice, |---------|---------|
A|-----7-7---|-----8-8---| then:- |-5-5-5-5-|-5-5-5\--|
E|-5---------|-6---------|        |---------|---------|

GUITAR SOLO:- Play PART 1, but instead of playing the first two
              bars, play the REPLACEMENT BAR 4 TIMES

MIDDLE 8 (AGAIN)

OUTRO

Play PART 1, five times, with the REPLACEMENT BAR, only leave
the last two bars out on the fifth time.

Well that's about it, any comments/suggestions to the e-mail address
at the top of this page
                                  Loz.
Comments