Jam - Mr Clean Chords & Tabs

 

Mr Clean Chords & Tabs

Jam Chords & Tabs

Version: 1 Type: Chords 0 ratings
1 star 2 stars 3 stars 4 stars 5 stars
comments

Mr Clean Chords

   
#----------------------------------PLEASE NOTE---------------------------------#
#This file is the author's own work and represents their interpretation of the #
#song. You may only use this file for private study, scholarship, or research. #
#------------------------------------------------------------------------------#


heliocentric@breathe.com
8th October 2000, 10.44pm
Shaun Hand, Birmingham

MR. CLEAN
(Weller)

From the LP 'All Mod Cons'

Chords used:

Dm:  x57765  Dm7:  x57565
C:   x3555x  Bm:   x24432
Am:  577555
G:   355433
Em7: x79787

riff 1:
[ Tab from: http://www.guitartabs.cc/tabs/j/jam/mr_clean_crd.html ]
  Dm
-----------      -----------------
--8\-6--3--      --8--6--3--8/15--
----------- (x3) -----------------
-----------      -----------------
-----------      -----------------
-----------      -----------------

Dm (riff 1)

  C              Bm       C                               Bm
-------------------------------------------------------------------------
--8-----------8--7--------8--------10^-8--------8------------------7-----
-----9-----9--------7--------9------------9--------9------------7-----7--
-------10--------------9-------10-----------10--------10-----9-----------
----------------------------------------------------------9--------------
-------------------------------------------------------------------------
Comments