Jam - Eton Rifles Chords & Tabs

 

Eton Rifles Chords & Tabs

Jam Chords & Tabs

Version: 1 Type: Bass Tab 0 ratings
1 star 2 stars 3 stars 4 stars 5 stars
comments

Eton Rifles Bass Tab

   
----------------------------------------------------------------------------
			     SONG NAME - Band Name
----------------------------------------------------------------------------

Tabbed By : Anfo
e-mail: sessionalschizophrenic@hotmail.com

Tuning: standard (EADG) 

Intro
G|----------------|         |----------------|----------------|
D|--------5-5-2-2-|X10 then |----------------|----------------|
A|----3-3---------|         |----------------|----------------|
E|5-5-------------|         |1-------1---1---|3-------3---3---|

Verse
G|----------------|----------------|    |----------------|
D|--------5---2---|----------7-5---|X4  |----------------|
A|3---------------|5-------5-----7-|then|----------------|
E|----------------|----------------|    |1-----1-3---3---|

Chorus
G|----------------|----------------|----------------|----------------|
D|----------------|----------------|--------5-5-2-2-|--------5-5-2-2-|
A|----------------|3---2---0---0---|----3-3---------|----3-3---------|
E|1-----1-3---3---|----------------|5-5-------------|5-5-------------|

G|----------------|----------------|----------------|----------------|
D|----------------|----------------|--------5-5-2-2-|--------5-5-2-2-|
A|----------------|3---2---0---0---|----3-3---------|----3-3---------|
E|1-----1-3---3---|----------------|5-5-------------|5-5-------------|
[ Tab from: http://www.guitartabs.cc/tabs/j/jam/eton_rifles_btab.html ]
G|----------------|----------------|----------------|----------------|
D|--------5-5-2-2-|--------5-5-2-2-|--------5-5-2-2-|--------5-5-2-2-|
A|----3-3---------|----3-3---------|----3-3---------|----3-3---------|
E|5-5-------------|5-5-------------|5-5-------------|5-5-------------|

Bridge
G|----------------|----------------|----------------|----------------|
D|----------------|----------------|----------------|----------------|
A|----------------|--------3---5---|----------------|--------3---5---|
E|0-------0---0---|1---------------|0-------0---0---|1---------------|

G|----------------|----------------|----------------|----------------|
D|----------------|----------------|----------------|----------------|
A|----------------|----------------|----------------|----------------|
E|3-3-3-3-3-3-3-3-|3---------------|3---------------|3-------3-------|

G|----------------|
D|----------------|
A|----------------|
E|3-3-3-3-3-3-3-3-|

Guitar Solo
G|----------------|----------------|  |----------------|----------------|
D|--------5---2---|----------7-5---|X2|----------------|----------------|
A|3---------------|5-------5-----7-|  |3---------------|5---------------|
E|----------------|----------------|  |----------------|----------------|

G|----------------|----------------|
D|----------------|----------------|
A|3---------------|5---------------|
E|----------------|----------3-4---|

G|----------------|----------------|----------------|----------------|
D|----------------|----------------|--------5-5-2-2-|--------5-5-2-2-|
A|----------------|----------------|----3-3---------|----3-3---------|
E|5------5--3-4---|5------5--3-4---|5-5-------------|5-5-------------|

Outro
G|----------------|----------------|
D|--------5-5-2-2-|--------5-5-2-2-|Repeat till end
A|----3-3---------|----3-3---------|
E|5-5-------------|5-5-------------|
Comments