Jal - Yaqeen Chords & Tabs

 

Yaqeen Chords & Tabs

Jal Chords & Tabs

Version: 1 Type: Tab 0 ratings
1 star 2 stars 3 stars 4 stars 5 stars
comments

Yaqeen Tab

   
song = yaqeen
artist = atif aslam
tabbed out by = omer mukhtar

 Daniyal:This is a tab tabbed out by one of my cousin named as omer

 Tuning = Standard
 b=bend , ~=vibrate

 The chords used in this song are
 D(x00232),D(x00454),G(320033),A(002220),

 duirng the song play the chords in this way

 Verse: (D) then (E) then (G) then play fast (GAD)
      jagay hian ..........................baichaineee.
       then [A then D then A then D then Dsus4 then (GAD)]
             hmmm ..................................
[ Tab from: http://www.guitartabs.cc/tabs/j/jal/yaqeen_tab.html ]
 1st Solo:
        e-----------------------------------|
        b----------------10-----------------|
        g-9-11---9-11-12----7---7-6---------|
        d----------------------------7-9-7--|
        a-----------------------------------|
        E-----------------------------------|
      then there is the piano version its a bit wrong but sounds just       the same ..
        e--------------------------------------------12-10-|
        b--10----8----7----8----10----8---7----8--10-------|
        g----7----7----7----7-----7----7---7---------------|
        d-0-----0----0----0----0-----0---0----0------------|
        a--------------------------------------------------|
        E--------------------------------------------------|

      then theres the song again then the 2nd solo
 2nd Solo:
       e-------------------------------------------7b~--7-5-------|
       b----------------5b~-----5------------8-7------------8-6-5-|
       g-7b~-7p5-7---5-7----7-5--5--7b~--7-5----------------------|
       d--------------------------5-------------------------------|
       a----------------------------------------------------------|
       E----------------------------------------------------------|
      after this the song starts again with jagay hain.......................
      but after that there a evrse in which chords are used in this way

       (D) then (G) then (A) then (D) then (D) then (G) then (A) then (GAD)
     ab agar tum................hai......has dain....................naheen hai .

listen the song first then take out the strumming in ur style and thanks my cousin for 
out these amazing solos for all the guitar lovers....
his name is omer and his mail is omer_mukhtar@hotmail.com
my name is daniyal and my mail is daniyal100@hotmail.com
Comments