Jal - Woh Lamhey Chords & Tabs

 

Woh Lamhey Chords & Tabs

Jal Chords & Tabs

Version: 1 Type: Tab 0 ratings
1 star 2 stars 3 stars 4 stars 5 stars
comments

Woh Lamhey Tab

   
Author/Artist: Jal
Title: Woh Lamhay
Album: Aadat
Transcribed by: Muaz Iqbal

This is my interpretation of the song
Corrections and comments r wellcomed at muaz_iqbal@yahoo.com

[INTRO]

[Riff-1]
e|--------------------------------------14-11--------|
B|---------------------------12--11--9---------------|
G|----------------9--8--6----------------------------|
D|---9-8---8-6---------------------------------------|
A|-6-----6------6----------6-------------------------|
E|---------------------------------------------------|

[Riff-2]
e|--------------------------------------------14-11--|
B|----------------------------------12--11--9--------|
G|-----------------------9--8--6---------------------|
D|---9-8---8-6-6h8p6-6-------------------------------|X2
A|-6-----6-------------6----------6------------------|
E|---------------------------------------------------|

[Riff-3]
e|--7-6-4--7-6-4h6-7-6-4-14----12----11--------------|
B|--------------------------11----11-----------------|
G|---------------------------------------------------|
D|---------------------------------------------------|X2
A|---------------------------------------------------|
E|---------------------------------------------------|


G#m is played with [Riff-3]


G#m                        F#
Wo lumhey Wo ratein koi na Jane
                     E
thi kaisey batein wo bersatein
                 F# 
wo bhegie bhegie yadein
                 E 
wo bhegie bhegie yadein



G#m                F#
Na mein Janu Na tu Jane
G#m
kaisa hai yea alum
F#
koi na jane
G#m 
phir kyon hai yea tanhaeee
F#
kaisi hai yea ruSwaieee
E
ghum ho gaye kyonnn
F#
kho gey hummmm

G#m 
Wo lumhey

[Riff-3]
e|--7-6-4--7-6-4h6-7-6-4-14----12----11--------------|
B|--------------------------11----11-----------------|
G|---------------------------------------------------|
D|---------------------------------------------------|X2
A|---------------------------------------------------|
E|---------------------------------------------------|
[ Tab from: http://www.guitartabs.cc/tabs/j/jal/woh_lamhey_tab.html ]
G#m                    F#
sager ki in lerroun se gehra hai mera mun
G#m                                 F#
sehrahoun ki in hawaoun mein kaisey aaye gi bahar
G#m 
phir kyon hai yea tunhaiee
F#
kaisi hai yea ruswaye
E
ghum ho gaye kyon
F#
khoo gaye hum


G#m                        F#
Wo lumhey Wo ratein koi na Jane
                     E
thi kaisey batein wo bersatein
                 F# 
wo bhegie bhegie yadein
                 E 
wo bhegie bhegie yadein


[SOLO]

    d u d d u d  d u d d u d  d u d d u d
e|-----------------------------------------------------------------|
B|-------------------------------------------9s11-11s12-11-9-------|
G|--6-6-6-4-4-4--6-6-6-4-4-4--6-6-6-4-4-4--------------------------|
D|-----------------------------------------------------------------|
A|-----------------------------------------------------------------|
E|-----------------------------------------------------------------|

    d u d d u d  d u d d u d  d u d d u d
e|-----------------------------------------------------------------------|
B|------------------------------------------9-11-12-14-12-11-9s11-9s7----|
G|--6-6-6-4-4-4--6-6-6-4-4-4---6-6-6-4-4-4-------------------------------|
D|-----------------------------------------------------------------------|
A|-----------------------------------------------------------------------|
E|-----------------------------------------------------------------------|

e|------------------------------------------|
B|-9-11-12-14-14s17-16--16h17p16-14h16------|
G|------------------------------------------|
D|------------------------------------------|
A|------------------------------------------|
E|------------------------------------------|



G#m 
andhie ho ya tufan ho
F#
mere mun mein rahe tu sada
G#m
koi apna ho ya paraya ho 
F#
usey dhoundoun mein kahan
G#m
phir kyon hai yea tunhaye
F#
kaisi hai yea ruswaye
E
ghum ho gaye kyon
F#
kho geye hum Ooooooooooooooooooooo


G#m                        F#
Wo lumhey Wo ratein koi na Jane
                     E
thi kaisey batein wo bersatein
                 F# 
wo bhegie bhegie yadein
                 E 
wo bhegie bhegie yadein


[OUTRO]

G#m - F#
Comments