Jal - Woh Lamhey Chords & Tabs

 

Woh Lamhey Chords & Tabs

Jal Chords & Tabs

Version: 1 Type: Bass Tab 0 ratings
1 star 2 stars 3 stars 4 stars 5 stars
comments

Woh Lamhey Bass Tab

Band:Jal Song:Woh Lamhey(Acoustic)

G|------------------------------------------------------------------|
D|------------------------------------------------------------------|
A|------------------------------------------------------------------|
E|-4--2--4--2--4--2-------------------------------------------------|
   Hooooooooooooooo

G|------------------------------------------------------------------|
D|------------------------------------------------------------------|
A|------------------------------------------------------------------|
E|-4--2--0--2--0--4--2--0--2--4--2--0--2--4--2--0--2--0-------------|
[ Tab from: http://www.guitartabs.cc/tabs/j/jal/woh_lamhey_btab.html ]
G|------------------------------------------------------------------|
D|------------------------------------------------------------------|
A|------------------------------------------------------------------|
E|-4--2--0--2------4--2--0--4--2--4--2--0--4------------------------|

G|------------------------------------------------------------------|
D|------------------------------------------------------------------|
A|------------------------------------------------------------------|
E|-4--2--0--2--0------4--2--0--2------4--2--4--2--4--2--0--2--------|

G|------------------------------------------------------------------|
D|------------------------------------------------------------------|
A|------------------------------------------------------------------|
E|-4--2--0--2--0---2--0--2------------------------------------------|

   thats it!

Usman Khan(Mani)......Sekcmonks@Hotmail.com
Comments