Jaguares - Adonde Vamos A Ir Chords & Tabs

 

Adonde Vamos A Ir Chords & Tabs

Jaguares Chords & Tabs

Version: 1 Type: Bass Tab 0 ratings
1 star 2 stars 3 stars 4 stars 5 stars
comments

Adonde Vamos A Ir Bass Tab

                           Adonde Vamos a ir
                                Jaguares
                           transcribed by: chinito@bardo.clearlight.com 


    repeat until no le importa                                          
G---||-------------------------||--||-------------------------||--------
D---||*-----------------------*||--||*-----------------------*||--------
A---||*--7--7--7-----------5--*||--||*--4--4--4-----------2--*||--------
E---||------------5--5--7------||--||------------2--2--4------||--------
                                        no le importa                   

                                                                        
G---||----------------------------||--------------------------|---------
D---||*--------------------------*||--------------------------|---------
A---||*--3--3--3-----------1--3--*||--2--2--2--------2--2--2--|---------
E---||------------1--1--3---------||-----------1--2-----------|---------
         ni le importa                lo que importa                    
[ Tab from: http://www.guitartabs.cc/tabs/j/jaguares/adonde_vamos_a_ir_btab.html ]
                                                                        
G---------------------------||------------------------------------------
D---------------------------||------------------------------------------
A------7--7--7--------------||------------------------------------------
E---------------5--5--7--5--||------------------------------------------
                                                                        

    chorus                                                              
G---------------------------------------------------------------|-------
D------------5--7--5-----------------------5--7--5--------------|-------
A---------------------5--6--7--5--------------------5--6--7--5--|-------
E---5--5--5-----------------------5--5--5-----------------------|-------
    ay, adonde vamos a ir                                               

                                                                        
G------------------------------------------------------------||---------
D---------------2--4-----------------------2--4--------------||---------
A---------------------2--3--4--2-----------------2--3--4--2--||---------
E------2--2--2--------------------2--2--2--------------------||---------
    ay, adonde vamos a estar                


Comments