Jagger Mick - God Gave Me Everything Chords & Tabs

 

God Gave Me Everything Chords & Tabs

Jagger Mick Chords & Tabs

Version: 1 Type: Tab 0 ratings
1 star 2 stars 3 stars 4 stars 5 stars
comments

God Gave Me Everything Tab

Song: God Gave Me Everything
Artist: Mick Jagger
Album: Goddess in the Doorway
Transcribed by: Toby

There is pretty much one riff in the whole song, except for the pre-
solo, which lasts maybe 12 seconds.
[ Tab from: http://www.guitartabs.cc/tabs/j/jagger_mick/god_gave_me_everything_tab.html ]
Main Riff
e---------------------------------------------------------------------
B---------------------------------------------------------------------
G-6-6-6-6-6-6-6-6-9-9-9-9-9-9-9-9-------------------------------------
D-6-6-6-6-6-6-6-6-9-9-9-9-9-9-9-9-7-7-7-7-7-7-7-7-4-4-4-4-4-4-4-4-----
A-4-4-4-4-4-4-4-4-7-7-7-7-7-7-7-7-7-7-7-7-7-7-7-7-4-4-4-4-4-4-4-4-----
E---------------------------------5-5-5-5-5-5-5-5-2-2-2-2-2-2-2-2-----

Then for the verses just play the bottom 2 notes one at a time.
The chorus is exactly the same, but it gets different after the 
2nd chorus.

e---------------------------------------------------------------------
B---------------------------------------------------------------------
G-4-4-4-4-4-4-4-4-4-4-4-4-4-4-4-4-------------------------------------
D-4-4-4-4-4-4-4-4-4-4-4-4-4-4-4-4-6-6-6-6-6-6-6-6-6-6-6-6-6-6-6-6-----
A-2-2-2-2-2-2-2-2-2-2-2-2-2-2-2-2-6-6-6-6-6-6-6-6-6-6-6-6-6-6-6-6-----
E---------------------------------4-4-4-4-4-4-4-4-4-4-4-4-4-4-4-4-----
repeat x2
solo, im too lazy. sorry
Toby
Comments