Jacobsson Oscar - Andantino Chords & Tabs

 

Andantino Chords & Tabs

Jacobsson Oscar Chords & Tabs

Version: 1 Type: Tab 0 ratings
1 star 2 stars 3 stars 4 stars 5 stars
comments

Andantino Tab

Song: Andantino
Artist: Oscar
Tabbed by: Obbe (obbe_sm)@hotmail.com)

INTRO
e|-----------3-------3-----3-------3-----3--------3------
B|------3-------3-------5-----3-------3-----3--------3----
G|--------0-------0------------0------------0--------2--
D|-----------------------------------------------0--------
A|--------------------------------9-----9------------------
E|----------------0-------------------------------------
[ Tab from: http://www.guitartabs.cc/tabs/j/jacobsson_oscar/andantino_tab.html ]
e|-----------3-------3-----3-------3-----3--------3------
B|------3-------3-------5-----3-------3-----3--------3----
G|--------0-------0------------0------------0--------2--
D|-----------------------------------------------0--------
A|--------------------------------9-----9------------------
E|----------------0-------------------------------------

VERSE
e|-----------3-------3------------3-----15------------
B|------3-------3-------5-----3-----------15----------
G|------------------------------------------1-16------
D|----------------------------------------------------
A|----------------------------------------------------
E|----------------------------------------------------



OSCAR JACOBSSON
ANDANTINO
WORLDS NEXT ]GEN[
Comments