Jackyl - She Loves My Cock Chords & Tabs

 

She Loves My Cock Chords & Tabs

Jackyl Chords & Tabs

Version: 2 Type: Tab 0 ratings
1 star 2 stars 3 stars 4 stars 5 stars
comments

She Loves My Cock Tab

   
e-----------------------------------------0-|
b---------------------5------------------0--|
g------9^--9^--9^^/7--7---7/4~~---2-----1---|
d--------------------------------------2----|
a-------------------------------------2-----|
e------------------------------------0------|
  e   g  a      e  e   g   a   c
-------------------------------------------|
-------------------------------------------|
-------------------------------------------|
--2---5---7-----2--2---5---7---10--(10)x14-|
--2---5---7-----2--2---5---7---10--(10)----|
--0---3---5-----0--0---3---5----8---(8)----|

 g a e e e    g a eee........
 those r all of the chords u figure out the rest

tabbed by mathew peter hanlon
[ Tab from: http://www.guitartabs.cc/tabs/j/jackyl/she_loves_my_cock_tab_ver_2.html ]
Comments