Jackyl - Secret Of The Bottle Chords & Tabs

 

Secret Of The Bottle Chords & Tabs

Jackyl Chords & Tabs

Version: 2 Type: Tab 0 ratings
1 star 2 stars 3 stars 4 stars 5 stars
comments

Secret Of The Bottle Tab

   
Jackyl
Secret of the bottle
Tabbed: Ron Smith
Note: keep lifting the pinky up and down 
to get the sound between the D and Dsus4
Dsus			D
I feel better , when im drinkin
                         A
It just seems to ease my mind
                       G
And all my worries and troubles
                       D
They just seem to fade behind
                     G
Oh the secret of the bottle
                D
It may never be known
       A                                            
So I raise my glass and propose a toast
     G                    D            
That This one baby is for you
                         D
I start to laugh when im drinking
                         A
And I may tell a joke or two
                 G
Sometimes I even pretend
                           D
That im still in love with you
                     G
Oh the secret of the bottle
                D
It may never be known
     A 
So I raise my glass and propose a toast
     G                    D
That this one baby is for you
                         A
And you ask me if I felt pain
		      D				
After all that I been through
                     A
I've paid more of my dues
                   D                 
I felt the pain of you

Oh cant be still back it up

Solo  
someone was nice enought to email me the solo to this 
song, I havn't checked it but he assures me he's right
thanks : for the solo Tabbed by: Adam (iceman89@sc.rr.com)

G D A G D Dsus4 G D A G D Dsus4

E |----------------------------------------------------------------||
B |-----------------------5^7--5^7r5--5^7r5--3p0--3----------------||
G |-------------------------------------------------4-2------------||
D |-----------------------------------------------------4-0--------||
A |----------------------------------------------------------------||
E |----------------------------------------------------------------||

   Oh, cant be still back it up..
E |----------------------------------------------------------------||
B |---------------------------8h10--10^12--10^12r10--10^12r10-8---8||
G |-------------------------------------------------------------9--||
D |----------------------------------------------------------------||
A |----------------------------------------------------------------||
E |----------------------------------------------------------------||

E |-------10-10----------------------------------------------------||
B |-10^12----12r10-8---8----10^12--10^12r10------------------------||
G |------------------9----------------------11--9^11--9^11--9^11r9-||
D |----------------------------------------------------------------||
A |----------------------------------------------------------------||
E |----------------------------------------------------------------||

E |------------------------------------------------------------------||
B |-----------------------------------------------------------10-----||
G |-7-------9^11r9--7--7-7h9-9-9p7-7-7-6h7p6-------7-9p7-9^11----11r9||
D |---9-7-9----------------------------------7-7/9-------------------||
A |------------------------------------------------------------------||
E |------------------------------------------------------------------||

E |----------------------------------------------------------------||
B |----------------------------------------------------------------||
G |-7-9p7---7---9^11r9-7-------7-----------------------------------||
D |-------9--------------9-7-9-------------------------------------||
A |----------------------------------------------------------------||
[ Tab from: http://www.guitartabs.cc/tabs/j/jackyl/secret_of_the_bottle_tab_ver_2.html ]
E |----------------------------------------------------------------||
E |----------------------------------------------------------------||
B |---------15-----15-----15-----15-----15-----15-----15-----15----||
G |-14-14h16--14h16--14h16--14h16--14h16--14h16--14h16--14h16------||
D |----------------------------------------------------------------||
A |----------------------------------------------------------------||
E |----------------------------------------------------------------||

E |----------------------------------------------------------------||
B |-------------------------------------------------15-------------||
G |-14p12-11^12^14-14-14-14r11----11h12-12^14r12^14----------------||
D |----------------------------12----------------------15p12-------||
A |----------------------------------------------------------------||
E |----------------------------------------------------------------||

E |-14h15-15^17-15^17-15^17-15^17----------14h15-15p14-14------------------------||
B |-------------------------------15-15h17----------------17-17p15-15h17-17p15-15||
G |------------------------------------------------------------------------------||
D |------------------------------------------------------------------------------||
A |------------------------------------------------------------------------------||
E |------------------------------------------------------------------------------||
   
   Oh tell me what I say..
E |----------------------------------------------------------------||
B |-------------------------12-10-------10-12^15-------------------||
G |-------------------------------10-------------------------------||
D |-------------------------12-------12----------------------------||
A |----------------------------------------------------------------||
E |----------------------------------------------------------------||

E |----------------------------------------------------------------||
B |-10-8-7-5-3-----7------10---8--------8--------------------------||
G |----------------------------7-9^11-7-7-9^11-7-------------------||
D |-10-9-7-5-4-4/7---7/10------------------------------------------||
A |----------------------------------------------------------------||
E |----------------------------------------------------------------||

E |----------------------------------------------------------------||
B |-8--------------------------------------------------------------||
G |-7-9^11-7-----7h9p7---7-10p7------------------------------------||
D |----------7h9-------9-------------------------------------------||
A |----------------------------------------------------------------||
E |----------------------------------------------------------------||

D Dsus4
I feel the pain when im  a drinkin
                             A
It just don't seem to cut as deep
                         G
When I lay down with out you
                            D
It makes it easier to go to sleep
                           G
Oooooooh the secret of the bottle
                D
It may never be known
     A                            
So I raise my glass and propose a toast
     G                    D
That this one baby is for you
                  G
The secret of the bottle
                D
It may never be known
   A                      
So raise my glass and propose a toast
     G                    D
That this one baby is for you
                              G
Ooooooooooo The secret of the bottle     The secret of the bottle
                D
It may never be known   it may never be known
     A    
So I rasie my glass and propose a toast
     G                    D
That this one baby is for you
 D   Dsus4
I feel better when im drinkin
Comments