Jackson Michael - Smooth Criminal Chords & Tabs

 

Smooth Criminal Chords & Tabs

Jackson Michael Chords & Tabs

Version: 1 Type: Tab 3 ratings
1 star 2 stars 3 stars 4 stars 5 stars
comments

Smooth Criminal Tab

   
e-----------------------------
b-----------------------------
g-----------------------------
d-----------------------------
a-0-000000-22-2-2-33-3-3-2---0
e--------------------------3--              x2

e-----------------------------
b-----------------------------
g-----------------------------
d-----------------------------
a-0-000000------------------0-
e----------3-3-33-1-1-11-33---              x2
[ Tab from: http://www.guitartabs.cc/tabs/j/jackson_michael/smooth_criminal_tab.html ]
e-----------------------------
b-----------------------------
d-----------------------------
g-----------------------------
a-0-000000-22-2-2-33-3-3-2---0
e--------------------------3--

e-----------------------------
b-----------------------------
d-----------------------------
g-----------------------------
a-3333333-3-3-5-55-55-55-55-0-
e-1111111-1-1-3-33-33-33-33---

e-----------------------------
b-----------------------------
d-----------------------------
g-----------------------------
a-000000------------------0---
e--------3-3-33-1-1-11-33-----              x2

Repeat this over and over again and it will sound like it. I'm pretty
sure that this is right.

From - Beau
Comments