Jackson Michael - Beat It Chords & Tabs

 

Beat It Chords & Tabs

Jackson Michael Chords & Tabs

Version: 4 Type: Bass Tab 2 ratings
1 star 2 stars 3 stars 4 stars 5 stars
comments

Beat It Bass Tab

G-------------------------------------------------
D--------5-2-4-2-0-0------------------------------
A------2------------------------------------------
E--0-3--------------------------------------------	                              	                                                                                                                                                         

G-------------------------------------------------
D--------5-2-4-2-0--------------------------------
A------2------------------------------------------
E--0-3--------------------------------------------			    								                     

G-------------------------------------------------
D--------5-2-4-2-0-0------------------------------
A------2------------------------------------------
E--0-3--------------------------------------------			    								                     

G-------------------------------------------------
D--------5-2-4-2-0--------------------------------
A------2------------------------------------------
E--0-3--------------------------------------------												           


G-------------------------------------------------
D-------------------------------------------------  (10x)
A-6-6--6----4-4--4--------------------------------
E-------------------------------------------------               									                     


G-------------------------------------------------
D--------5-2-4-2-0-0------------------------------
A------2------------------------------------------
E--0-3--------------------------------------------												           


G-------------------------------------------------
D--------5-2-4-2-0--------------------------------
A------2------------------------------------------
E--0-3--------------------------------------------											                     

G-------------------------------------------------
D--------5-2-4-2-0-0------------------------------
A------2------------------------------------------
E--0-3--------------------------------------------												           

G-------------------------------------------------
D--------5-2-4-2-0--------------------------------
A------2------------------------------------------
E--0-3-------------------------------------------- 												           

G-------------------------------------------------
D--------5-2-4-2-0-0------------------------------
A------2------------------------------------------
E--0-3--------------------------------------------											                     


G-------------------------------------------------
D--------5-2-4-2-0--------------------------------
A------2------------------------------------------
E--0-3--------------------------------------------												           

G-------------------------------------------------
D-------------------------------------------------  (8x)
A-6-6--6----4-4--4--------------------------------
E-------------------------------------------------												           
[ Tab from: http://www.guitartabs.cc/tabs/j/jackson_michael/beat_it_btab_ver_4.html ]
G-------------------------------------------------
D--------5-2-4-2-0-0------------------------------
A------2------------------------------------------
E--0-3--------------------------------------------												           

G-------------------------------------------------
D--------5-2-4-2-0--------------------------------                                
A------2------------------------------------------
E--0-3-------------------------------------------- 												           

G-------------------------------------------------
D--------5-2-4-2-0-0------------------------------
A------2------------------------------------------
E--0-3--------------------------------------------											                     

G-------------------------------------------------
D--------5-2-4-2-0--------------------------------
A------2------------------------------------------
E--0-3--------------------------------------------												           

G-------------------------------------------------
D--------5-2-4-2-0-0------------------------------
A------2------------------------------------------
E--0-3--------------------------------------------											                     

G-------------------------------------------------
D--------5-2-4-2-0--------------------------------
A------2------------------------------------------
E--0-3--------------------------------------------												          

G-------------------------------------------------
D--------5-2-4-2-0-0------------------------------
A------2------------------------------------------
E--0-3-------------------------------------------- 												           

G-------------------------------------------------
D--------5-2-4-2-0--------------------------------
A------2------------------------------------------
E--0-3-------------------------------------------- 												           

G-------------------------------------------------
D------------------------------------------------- (5x)
A-------------------------------------------------
E-0-0-0--0-0-0------------------------------------												           

G-------------------------------------------------
D-------------------------------------------------
A-------------------------------------------------
E-0-0-0--0-0--------------------------------------												           

G-------------------------------------------------
D------------------------------------------------- (10X)
A------------------------------------------------- (Note Continue Throw-out solo)
E-0-0-0--0-0-0------------------------------------  											                     


(Continue Theis two riff for 20x) 



G-------------------------------------------------
D--------5-2-4-2-0-0------------------------------
A------2------------------------------------------
E--0-3--------------------------------------------  								                      	                                        

G-------------------------------------------------       
D--------5-2-4-2-0--------------------------------
A------2------------------------------------------
E--0-3--------------------------------------------											                     

Comments