Jackson 5 - I Want You Back Chords & Tabs

 

I Want You Back Chords & Tabs

Jackson 5 Chords & Tabs

Version: 1 Type: Bass Tab 0 ratings
1 star 2 stars 3 stars 4 stars 5 stars
comments

I Want You Back Bass Tab

   
-------------------------------------------------------------------------------
			 I want you back 3.Jackson 5
-------------------------------------------------------------------------------

Tabbed By : kiwi-bass
e-mail: fletcherreno@aol.com

Tuning:standard.        This is how I,ve always played this song.
  RIFF 1
G|---------------------------------------------------------------------------|
D|-------1--------------0--1--2--3----------------------------------------------|
A|---2-3---4---1--3--4--------------3--4--------6------------------------------------|
E|-4--------------------------------------4--6-----4---------------------------|
  RIFF 2
G|---------------------------------------------------------------------------|
D|-------6-----6-----6--5--5--3--3--1-----1-----------------------------------------|
A|-6--8-----8-----8--------------------1-----1--4--4--3--3--1---------------------------|
E|---------------------------------------------------------------------------|

G|---------------------------------------------------------------------------|
D|-0--1--2--3--------------------------------------------------------------------|
A|-------------3--4---------6--------------------------------------------------|
E|-------------------4---6-----4------4--4--4---4-----------------------------------|
  RIFF 3
G|-------5--------------------------------------------------------------------|
D|-3--6--------3--6--------------3--6----------------------------------------------|
A|----------4-----------3--6--4--------------------------------------------------|
E|-------------------4--------------------------------------------------------|
[ Tab from: http://www.guitartabs.cc/tabs/j/jackson_5/i_want_you_back_btab.html ]
G|---------------------------------------------------------------------------|
D|---------------------------------------------------------------------------|
A|---------------------------------------------------------------------------|
E|---------------------------------------------------------------------------|

G|---------------------------------------------------------------------------|
D|---------------------------------------------------------------------------|
A|---------------------------------------------------------------------------|
E|---------------------------------------------------------------------------|

G|---------------------------------------------------------------------------|
D|---------------------------------------------------------------------------|
A|---------------------------------------------------------------------------|
E|---------------------------------------------------------------------------|

G|---------------------------------------------------------------------------|
D|---------------------------------------------------------------------------|
A|---------------------------------------------------------------------------|
E|---------------------------------------------------------------------------|

G|---------------------------------------------------------------------------|
D|---------------------------------------------------------------------------|
A|---------------------------------------------------------------------------|
E|---------------------------------------------------------------------------|


| /  slide up
| \  slide down
| h  hammer-on
| p  pull-off
| ~  vibrato
| +  harmonic
| x  Mute note
===============================================================================

Comments