Jackson - Fell Into Chords & Tabs

 

Fell Into Chords & Tabs

Jackson Chords & Tabs

Version: 1 Type: Tab 0 ratings
1 star 2 stars 3 stars 4 stars 5 stars
comments

Fell Into Tab

Band   : Jackson
Song   : Fell Into         - written by Chris Shiflett
Album  : Jackson EP
Tuning : Normal

tabbed by Peter Tom Takaro
--------------------------
errors&comments&requests on nouseforaname@freemail.hu


e--0--0-0--0-0--3--0--0-0-0-0---------------------
B--1--1-1--1-1--0--0--1-1-1-1---------------------
G--2--2-0--0-0--0--0--2-2-2-2---------------------
D--3--3-3--2-2--0-----2-2-2-2---------------------
A--3--3-3--3-3--2---------------------------------
E-------------------------------------------------
[ Tab from: http://www.guitartabs.cc/tabs/j/jackson/fell_into_tab.html ]
after 1st verse
e------------------------------------------------
B------------------------------------------------
G------------------------------------------------
D--3-2-0-----------------------------------------
A--------3-2-0-------2--3~-----------------------
E--------------1-(3)-----------------------------

solo
e--7/8-8~--10/12~--1212p10-8-10\-8~--7h8-8-7-5~----
B-101010~--12/13~--1313-1310-12\10~--8-8-8-8-5~----


e--3/8~--10-7h8p7-5~--7h8p7-5-3~---0~-/12~---------
B--5/8~---8-8-8-8-5~--8-8-8-5-5~---6~-/13~---------


Outro/2nd gtr
something like...eh,I'm not sure of this
e--8p7p5----8p7p5--------------------------------
B--------8--------8--etc.------------------------
G------------------------------------------------
D------------------------------------------------
A------------------------------------------------
E------------------------------------------------

keys,

h=hammer on
p=pull off
()=ghost note
/=slide up
\=slide down
~=let ring

Have fun!
Comments