Jacks Mannequin - Mixed Tape Chords & Tabs

 

Mixed Tape Chords & Tabs

Jacks Mannequin Chords & Tabs

Version: 1 Type: Tab 0 ratings
1 star 2 stars 3 stars 4 stars 5 stars
comments

Mixed Tape Tab

   
----------------------------------------------------------------------------
		THE MIXED TAPE - Jack's Mannequin
----------------------------------------------------------------------------

Tabbed by: Nathan Alexander
Email: phree89@yahoo.com

Ok. Well its not a very complicated song, though it sounds great. The second time around
the chorus starts a little early so just play with it. I listed the chords in the chorus
in case you want to go figure out the chorus piano, which is also pretty easy. Just a
note if you do, the piano goes from the Dbmj back to Ebm instead of the Abmj on that
first part. I'm pretty sure thats the only difference. If not let me know. Enjoy.

Tuning:Normal (EADGBE)

| /  slide up
| \  slide down
| h  hammer-on
| p  pull-off
| ~  vibrato
| +  harmonic
| x  Mute note
|<(?) Bend to note

ORDER:
|Verse Part 1
|Verse Part 2
|Verse Part 1
|Verse part 2
|Chorus
|Verse Part 1
|Verse Part 2
|Verse Part 1
|Verse part 2/early chorus
|Chorus
|Bridge
|Chorus rest of song


Verse Part 1(intro)
E|--------------------------------------------|
B|--------------------------------------------|
G|--6--5---5--10------------------------------|
D|--x--x---6--8-------------------------------| 
A|--x--4---x--6-------------------------------|
E|--6------4----------------------------------|


Verse Part 2 Guitar 1
e|----------------------------------|
B|----------------------------------|
G|----------6-6-6-6--8-8-8-8--------|
D|-4-4-4-4--6-6-6-6--8-8-8-8--------|
A|-4-4-4-4--4-4-4-4--6-6-6-6--------|
E|-2-2-2-2--------------------------|
[ Tab from: http://www.guitartabs.cc/tabs/j/jacks_mannequin/mixed_tape_tab.html ]
Verse Part 2 Guitar 2 (2X)
e|--------------------------------------|
B|--------------------------------------|
G|----10-10-8-8----------10-10-8-8------|
D|-8-8---------11-11--8-8---------11-11-|
A|--------------------------------------|
E|--------------------------------------|

Verse Part 1
E|--------------------------------------------|
B|--------------------------------------------|
G|--6--5---5--10------------------------------|
D|--x--x---6--8-------------------------------|
A|--x--4---x--6-------------------------------|
E|--6------4----------------------------------|


Verse Part 2 Guitar 1
e|----------------------------------|
B|----------------------------------|
G|----------6-6-6-6--8-8-8-8--------|
D|-4-4-4-4--6-6-6-6--8-8-8-8--------|
A|-4-4-4-4--4-4-4-4--6-6-6-6--------|
E|-2-2-2-2--------------------------|

Verse Part 2 Guitar 2 (2X)
e|------------------------------------------------------|
B|------------------------------------------------------|
G|----10-10-8-8----------10-10-8-8-----(last one)8<(10)-|
D|-8-8---------11-11--8-8---------11-11-----------------|
A|------------------------------------------------------|
E|------------------------------------------------------|

Chorus
  F#mj    Bm   Dbmj Ebmj   F#mj  Dbmj Abmj
e|-11-11--6-6--6-6--8-8----6-6----6-6--4---|
B|-11-11--6-6--6-6--8-8----11-11--6-6--4---|
G|-11-11--6-6--6-6--8-8----11-11--6-6--5---|
D|-11-11--8-8--6-6--6-6----11-11--8-8--6---|
A|--9-9---8-8--4-4--6-6----9-9----8-8--6---|
E|--------6-6---------------------6-6--4---|

Bridge (same as second part of choruse)
  F#mj  Dbmj Abmj
e|--6-6---6-6--4---|
B|-11-11--6-6--4---|
G|-11-11--6-6--5---|
D|-11-11--8-8--6---|
A|-9-9----8-8--6---|
E|--------6-6--4---|


 After that its pretty much goes with the chorus. Toy with it, get a feel for it.
Its my first tab I think I did ok. Any corrections email me: phree89@yahoo.com




============================================================================
Comments