Jack Parker - 199 Chords & Tabs

 

199 Chords & Tabs

Jack Parker Chords & Tabs

Version: 1 Type: Tab 0 ratings
1 star 2 stars 3 stars 4 stars 5 stars
comments

199 Tab

PART ONE
e---------------------------------------------------------------------|
B-----2-------2-------2-------2-------2-------2-------2-----2---------|
G---2---2---2---2---2---2---2---2---2---2---2---2---2---2---2---------|
D-2-------2-------2-------2-------0-------0-------0-------0-0---------|
A---------------------------------------------------------------------|
E---------------------------------------------------------------------|
PART TWO
e--------------------------------------|
B--------------------------------------|
G-------------------99-9-9-9-99-9-9-9--|
D-77-7-7-7-77-7-7-7-99-9-9-9-99-9-9-9--|
A-77-7-7-7-77-7-7-7-77-7-7-7-77-7-7-7--|
E-55-5-5-5-55-5-5-5--------------------|
[ Tab from: http://www.guitartabs.cc/tabs/j/jack_parker/199_tab.html ]
e--------------------------------------|
B--------------------------------------|
G-------------------77-7-7-7-77-7-7-7--|
D-44-4-4-4-44-4-4-4-77-7-7-7-77-7-7-7--|
A-44-4-4-4-44-4-4-4-55-5-5-5-55-5-5-5--|
E-22-2-2-2-22-2-2-2--------------------|
*****************************************************************************
|PLAY PART ONE FOR INTRO/TRANSITION, CLEAN FOR INTRO DISTOTION FOR TRANSITION|
|PLAY PART TWO TWICE REGULAR, THEN FOUR TIMES PALM MUTED                     |
*****************************************************************************

BASS/ BACK UP LINE INTRO       BASS/ BACK UP LINE PART TWO
e------------------------|      STRAIGHT EIGHTHS ON THE ROOT
B--2----------2----------|
G--2-let ring 2-let ring-|
D--2----------0----------|
A------------------------|
E------------------------|
Comments