Jack Off Jill - Horrible Chords & Tabs

 

Horrible Chords & Tabs

Jack Off Jill Chords & Tabs

Version: 2 Type: Tab 0 ratings
1 star 2 stars 3 stars 4 stars 5 stars
comments

Horrible Tab

Jack Off Jill - Horrible (2:29)
Track 02 - Humid Teenage Mediocrity

Intro/Verse - 0:05

Guitar 1
e---------------------------------|
B---------------------------------|
G---------------------------------|
D---------------------------------|
A---------------------------------|
E---4-6-4-6-4-6-4-6-6-9-9-8-8-----| x 8 until 0:25
  Pm..........................

PreChorus - 0:25
Guitar 1
e---------------------------------------------------------------------|
B---------------------------------------------------------------------|
G---------------------------------------------------------------------|
D---------------------------------------------------------------------|
A---------------------------------------------------------------------|
E---6--6--6--6--6--6--6--6--6--6--6--6--6--6--6--6--6--6--6--6--6--6--| x 2
  Pm..................................................................
Guitar 2
e---------------------------------------------------------------------|
B---------------------------------------------------------------------|
G---------------------------------------------------------------------|
D---------------------------13-13-11----------------------------------|
A------------------------------------------------------------13-13-11-|
E---------------------------------------------------------------------| x 2

Chorus - 0:37

e---------------------------------|
B---------------------------------|
G---------------------------------|
D---6-8-6-8-6-8-6-8-11-10---------|
A---6-8-6-8-6-8-6-8-11-10---------|
E---4-6-4-6-4-6-4-6-9--8----------| x 4
[ Tab from: http://www.guitartabs.cc/tabs/j/jack_off_jill/horrible_tab_ver_2.html ]
Verse 2 - 0:48
Guitar 1
e---------------------------------|
B---------------------------------|
G---------------------------------|
D---------------------------------|
A---------------------------------|
E---4-6-4-6-4-6-4-6-6-9-9-8-8-----| x 4

PreChorus - 0:59
Guitar 1
e---------------------------------------------------------------------|
B---------------------------------------------------------------------|
G---------------------------------------------------------------------|
D---------------------------------------------------------------------|
A---------------------------------------------------------------------|
E---6--6--6--6--6--6--6--6--6--6--6--6--6--6--6--6--6--6--6--6--6--6--| x 2
  Pm..................................................................
Guitar 2
e---------------------------------------------------------------------|
B---------------------------------------------------------------------|
G---------------------------------------------------------------------|
D---------------------------13-13-11----------------------------------|
A------------------------------------------------------------13-13-11-|
E---------------------------------------------------------------------| x 2


Chorus - 1:09

e---------------------------------|
B---------------------------------|
G---------------------------------|
D---6-8-6-8-6-8-6-8-11-10---------|
A---6-8-6-8-6-8-6-8-11-10---------|
E---4-6-4-6-4-6-4-6-9--8----------| x 4

Interlude - 1:19

e---------------------------------|
B---------------------------------|
G---------------------------------|
D---8-7-6-5-----------------------|
A---8-7-6-5-----------------------|
E---6-5-4-3-----------------------| x 4
 (see song for strumming pattern)

Then basically back to Verse and Prechorus. Thats about it. Any problems or 
E-mail me at Will100803@hotmail.com.
Comments