Jack Off Jill - Choke Chords & Tabs

 

Choke Chords & Tabs

Jack Off Jill Chords & Tabs

Version: 1 Type: Tab 0 ratings
1 star 2 stars 3 stars 4 stars 5 stars
comments

Choke Tab

Choke (guitar)
by Jack Off Jill
Tabbed by Ottis (GoblinKing9@yahoo.com)
[ Tab from: http://www.guitartabs.cc/tabs/j/jack_off_jill/choke_tab.html ]
e-------------------------------------|------------------------------------
B-------------------------------------|------------------------------------
G-------------------9-9-9--8-8--7-7---|------------------------------------
D-------------------9-9-9--8-8--7-7---|-------------------4-4-4--5-5--7-7--
A-------------------7-7-7--6-6--5-5---|-------------------4-4-4--5-5--7-7--
E--0-0-0-0-0-0-0-0--------------------|--0-0-0-0-0-0-0-0--2-2-2--3-3--5-5--
  Verse [The last time that's played in the verse, the last chords are
	played just once each.]

e------------------------------------
B------------------------------------
G-------9--------9----------9-9--8---
D-------9--------9----------9-9--8---
A-------7--------7----------7-7--6---
E--0-0------0-0------0-0-0-----------
  Pre-Chor [This is my best guess..the quality of my tape isn't too good]

e-------------------------
B-------------------------
G--7---5---7---4-4--5-7---
D--7---5---7---4-4--5-7---
A--5---3---5---2-2--3-5---
E-------------------------
  Chorus
Comments