Jack Off Jill - Angels Fuck Chords & Tabs

 

Angels Fuck Chords & Tabs

Jack Off Jill Chords & Tabs

Version: 1 Type: Tab 1 rating
1 star 2 stars 3 stars 4 stars 5 stars
comments

Angels Fuck Tab

   
                                     Jack Off Jill- Angel's Fuck
                               From the Album: Sexless Demons and Scars

					    Tabbed by J.E.


Standard Tuning 


Rhythm Figure 1

e|---3---3---3---3---3---3---3---3|
B|-6---6---5---5---4---4---3---3--|
G|--------------------------------|
D|--------------------------------|
A|--------------------------------|
E|--------------------------------|

Rhythm Figure 2

  G5                F5                       E5               D#5           D5
e|-----------------|------------------------|----------------|----------------|
B|-----------------|------------------------|----------------|----------------|
G|-----------------|10-10-10-10-10-10-10-10-|9-9-9-9-9-9-9-9-|8-8-8-8-8-8-8-7-|
D|5-5-5-5-5-5-5-5--|10-10-10-10-10-10-10-10-|9-9-9-9-9-9-9-9-|8-8-8-8-8-8-8-7-|
A|5-5-5-5-5-5-5-5--|8--8--8--8--8--8--8--8--|7-7-7-7-7-7-7-7-|6-6-6-6-6-6-6-5-|
E|3-3-3-3-3-3-3-3--|------------------------|----------------|----------------|

Rhythm Figure 3
[ Tab from: http://www.guitartabs.cc/tabs/j/jack_off_jill/angels_fuck_tab.html ]
  G5               A#5              C5               D#5
e|----------------|----------------|----------------|----------------|
B|----------------|----------------|----------------|----------------|
G|----------------|----------------|5-5-5-5-5-5-5-5-|8-8-8-8-8-8-8-8-|
D|5-5-5-5-5-5-5-5-|8-8-8-8-8-8-8-8-|5-5-5-5-5-5-5-5-|8-8-8-8-8-8-8-8-|
A|5-5-5-5-5-5-5-5-|8-8-8-8-8-8-8-8-|3-3-3-3-3-3-3-3-|6-6-6-6-6-6-6-6-|
E|3-3-3-3-3-3-3-3-|6-6-6-6-6-6-6-6-|----------------|----------------|

Rhythm Figure 4- Piano Outro
e|----------------------|-----------------------|-----------------------|-----------------------|
B|--------15-13---------|-----------------------|---------15-13---------|-----------------------|
G|--12-15-------15-14-15|14-13-12-13-12---------|12-12-15-------15-14-15|14-13-12-13-12---------|
D|----------------------|-----------------------|12---------------------|-----------------------|
A|----------------------|-----------------------|10---------------------|-----------------------|
E|----------------------|---------------10-11-13|10---------------------|---------------10-11-13|

e|-----------------------|-----------------------|------------|
B|--------15-13----------|-----------------------|------------|
G|12-12-15-------15-14-15|14-13-12-13-12---------|12----------|
D|12---------------------|-----------------------|12----------|
A|10---------------------|-----------------------|10----------|
E|10---------------------|---------------10-11-13|10----------|


Intro and Verse: Figure 1
Chorus: Figure 2
Bridge: Figure 3



Requests? NubioSlepp@netscape.net
Comments