Jack Johnson - Wrong Turn Chords & Tabs

 

Wrong Turn Chords & Tabs

Jack Johnson Chords & Tabs

Version: 4 Type: Tab

Wrong Turn Tab

*****Guit 1*****
e--------0-----------------------------------------------------------------|
B---1------1---1---1------1-----1---1------1------1---1----1---------------|
G-----0--------------0------0---------0------0----------0----0---0---------|
D-------2----2---3------2-----0--------------------------------0-----------|
A-3--------------------------------------0----------------2----------------|
E---------------------------------1------------1----3----------------------|


*****Guit 2*****
e -------------------------------------------------------------------------|
B ------10------------------------------8-8~~~-------10--------------------|
G -9h12----9-------7----------------7/9---------9h12----9--------7---------|
D -----------12--10--10-7-----7-10-----------------------12--10---10-7-----|
A --------------------------10---------------------------------------------|
E -------------------------------------------------------------------------|
[ Tab from: http://www.guitartabs.cc/tabs/j/jack_johnson/wrong_turn_tab_ver_4.html ]
e -------------------------------------------------------------------------|
B -------------------------------------------------------------------------|
G -------------------------------------------------------------------------|
D ----9-10/12-10-----------------------------------------------------------|
A -10----------------------------------------------------------------------|
E -------------------------------------------------------------------------|

The guitar 1 has the same partern all along the song... and the guitar 2 has a new riff 
Jack says; "...it wasn't me it was you". I don't know what is that part... I'm still 
to find it. I found something like:

e -8-----8---------8-----8--------7-----7---10-8---------------------------|
B ---8-------8---8---8------8---8---8-----8--------------------------------|
G -----9-------9-------9------9-------9------------------------------------|
D -------------------------------------------------------------------------|
A -------------------------------------------------------------------------|
E -------------------------------------------------------------------------|

Something like that...you'll find the patern by listening the song...not beautiful when 
alone but with two guitars it's pretty good =)

-Barno-