Jack Johnson - Who Knows Chords & Tabs

 

Who Knows Chords & Tabs

Jack Johnson Chords & Tabs

Version: 1 Type: Tab 0 ratings
1 star 2 stars 3 stars 4 stars 5 stars
comments

Who Knows Tab

WHO KNOWS

All music and lyrics written by and property of Jack Johnson
		(or whoever he happens to be covering...)
Transcribed by Jai Mitchell
jai_mitchell@yahoo.com
http://members.optushome.com.au/jaimitchell

This song basically consists of two main patterns all based around the same idea..

first pattern:
|------------------------------|
|.-------------------------7~-.|
|--------------------------7~--|
|--9-7-9-7-9-7-------------7~--|
|.-------------9-8-7~--7-7----.|
|------------------------------|
[ Tab from: http://www.guitartabs.cc/tabs/j/jack_johnson/who_knows_tab.html ]
second pattern:
|--------------------------------|
|.---------------------------7~-.|
|----------------------------7~--|
|--9-7-9-7-9-7-9-7-9-7-9-7-9-7~--|
|.------------------------------.|
|--------------------------------|

variation on second pattern:

|--------------------------------|
|--9b10--9--7----------------7~--|
|--9b10--9--7----------------7~--|
|--------------9-7-9-7-9-7-9-7~--|
|--------------------------------|
|--------------------------------|

third pattern:
|---------------------|
|.-------------------.|
|---------------------|
|--9-7----------------|
|.------9-8--7-------.|
|--------------10--7--|

enjoy
Comments