Jack Johnson - Were Going To Be Friends Chords & Tabs

 

Were Going To Be Friends Chords & Tabs

Jack Johnson Chords & Tabs

Version: 2 Type: Tab

Were Going To Be Friends Tab

   
We're Going To Be Friends by The White Stripes
Covered by Jack Johnson

Standard Tuning:

Intro: (0-5 sec)
E ------------------|
B -----0---0---0----|
G -0-0---0---0---0--|
D ------------------|
A ------------------|
E 3-3-3-3-3-3-3-3-3-|

E ---------------------------------2-0-------------2-0---------------------|
B -0---0---0---0---1---1-----0---0-----3-3-0---0-0-----3-3---0---0---0---0-|
G ---0---0---0---0---0---0-0---0-------------0-------------0---0---0---0---|
D --------------------------------0-0-------------0-0----------------------|
A ----------------3-3-3-3-------------3-3-------------3-3------------------|
E 3-3-3-3-3-3-3-3---------3-3-3-3---------3-3-3-3---------3-3-3-3-3-3-3-3--|

Fall is here, hear the yell
Back to school, ring the bell
Brand new shoes, walking blues
Climb the fence, book and pens
I can tell that we are gonna be friends

Walk with me, Suzy Lee
Through the park, by the tree
We will rest upon the ground
And look at all the bugs we've found
Then safely walk to school
Without a sound

E ---------------------------------2-0-------------2-0---------------------|
B ---0---0---0---0-1---1-----0---0-----3-3---0---0-----3-3---3---3-3---3-3-|
G -0---0---0---0-----0---0-0---0-----------0---0-----------0---0-----0-----|
D --------------------------------0-0-------------0-0----------------------|
A ----------------3-3-3-3-------------3-3-------------3-3------------------|
E 3-3-3-3-3-3-3-3---------3-3-3-3---------3-3-3-3---------3-3-3-3-3-3-3-3--|

Well here we are, no one else
We walked to school all by ourselves
There's dirt on our uniforms
From chasing all the ants and worms
We clean up and now it's time to learn
[ Tab from: http://www.guitartabs.cc/tabs/j/jack_johnson/were_going_to_be_friends_tab_ver_2.html ]
E ---------------------------------2-0-------------2-0---------------------|
B ---3---3---3---0-1---1-----0---0-----3-3---3---3-----3-3---3---3---3---0-|
G -0---0---0---0-----0---0-0---0-----------0---0-----------0---0---0---0---|
D --------------------------------0-0-------------0-0----------------------|
A ----------------3-3-3-3-------------3-3-------------3-3------------------|
E 3-3-3-3-3-3-3-3---------3-3-3-3---------3-3-3-3---------3-3-3-3-3-3-3-3--|

Numbers, letters, learn to spell
Nouns, and books, and show and tell
At playtime we will throw the ball
Back to class, through the hall
Teacher marks our height against the wall

E ---------------------------------5---5-5---5--------------2----|
B -1---1-----0---0-1---1-----0---0---2-----2---2-0-1---1--3---3--|
G ---0---0-0---0-----0---0-0---0---------------------0-----------|
D -------------------------------------------------------0-0-0-0-|
A 3-3-3-3---------3-3-3-3---------0-0-0-0-0-0-0-0-3-3-3-3--------|
E --------3-3-3-3---------3-3-3-3--------------------------------|

And we don't notice any time pass
We don't notice anything
We sit side by side in every class
Teacher thinks that I sound funny
But she likes the way you sing

E ---------------------------------2-0-------------2-0-------------2-0----3-|
B -3---3-3-3-3-3-0-1---1---0-0-0-0-----3-3---3---------3-3---3---3-----3-33-|
G ---0---------------0---0-----------------0---0-0---------0---0------------|
D --------------------------------0-0-------------0-0-------------0-0-------|
A ----------------3-3-3-3-------------3-3-------------3-3-------------3-3-2-|
E 3-3-3-3-3-3-3-3---------3-3-3-3---------3-3-3-3---------3-3-3-3-----------|

Tonight I'll dream while I'm in bed
When silly thoughts go through my head
About the bugs and alphabet
And when i wake tomorrow I'll bet
That you and i will walk together again
Because i can tell that we are going to be friends.

End on G