Jack Johnson - Upside Down Chords & Tabs

 

Upside Down Chords & Tabs

Jack Johnson Chords & Tabs

Version: 1 Type: Chords

Upside Down Chords

   
Artist: Jack Johnson
Title: Upside Down
From the album: "Sing-A-Longs & Lullabies for the Film Curious George"
Released Feb 7th, 2006
Song written by Jack Johnson
Tabbed by: Lene Duus jubas4(a)hotmail.com
This file is my own work, tabbed from the radio version that's out now. The outro is not 
as the recorded version I have cuts off before the end. But you'll probably figure it 
as it is in the same vein as the intro. Enjoy!

Standard tuning

Intro: E E F#m F#m x 2
Verse: E E F#m F#m
Chorus: E F#m A B
Bridge: G#m F#m G#m A B
[ Tab from: http://www.guitartabs.cc/tabs/j/jack_johnson/upside_down_crd.html ]
Intro riff: (x2)
e--------------------------------------------|
H--------------------------------------------|
G---------4-------4-6------------------------|
D----4h6-----4h6-------4--(---)-4h6 4h6-4-2--|
A--------------------------------------------|
E--------------------------------------------|

e--------------------------------------------|
H--------------------------------------------|
G---------4-------4-6------------------------|
D----4h6-----4h6-------4--(---)-4h6 4h6-4-2--|
A--------------------------------------------|
E--------------------------------------------|

e--------------------------------------------|
H--------------------------------------------|
G---------4-------4-6------------------------|
D----4h6-----4h6-------4--(---)-----2-2h4-2--|
A--------------------------------4-----------|
E--------------------------------------------|