Jack Johnson - Traffic In The Sky Chords & Tabs

 

Traffic In The Sky Chords & Tabs

Jack Johnson Chords & Tabs

Version: 3 Type: Tab 0 ratings
1 star 2 stars 3 stars 4 stars 5 stars
comments

Traffic In The Sky Tab

hey guys, pretty easy song. A lot of ppl have tabbed this with incorrect fingering but 
i play it, it sounds exactly the same as the real thing, so im pretty sure this is 100% correct.

Standard Tuning - EADGBe
No capo

intro/verse:

e|----------------------------------------------------------------------|
B|----7---7----------10------10----------5-----5----------8-----8-------|
G|------7---7-----------9-------9----------5-----5----------7-----7-----|
D|-------7----------------11-----------------5----------------9---------|
A|--5---------5/9--9--------------9/3--3-----------3/7--7-----------7/5-|
E|----------------------------------------------------------------------|

repeat that till you get to the pre-chorus.

pre-chorus:
[ Tab from: http://www.guitartabs.cc/tabs/j/jack_johnson/traffic_in_the_sky_tab_ver_3.html ]
e|--------------------------------------------------------------|
B|--------------------------------------------------------------|
G|----6----6-------6-----5------4-----4------------6-----6------|
D|------7----7-------7-----6------5-----5------------7-----7----|
A|--------7---7---------------------5------------------7-----7--|
E|--5------------5-----4------3--------------3/5-5--------------|

play that once before the each chorus.

Chorus:

e|----------------------------------------------------------------|
B|----7-----7---------3-----3-------------------------------------|
G|------7-----7---------4-----4-------4-----4----------6-----6----|
D|--------7---------------4-------------5-----5----------7-----7--|
A|--5-----------5/2-2-----------2---------5----------------7------|
E|---------------------------------3-------------3/5-5------------|

Then it just goes straight back into the verse after you repeat the chorus a couple of
times.

Well that pretty much wraps it up, fairly simple for anyone to play, even a beginer.
Listen to the song for timing. The only problem you might have is that the pre-chorus
and chorus kind of overlap, but just listen to the song and you will get it easily
enough.
Enjoy.
Peace and Love
Andy :)
Comments