Jack Johnson - Traffic In The Sky Chords & Tabs

 

Traffic In The Sky Chords & Tabs

Jack Johnson Chords & Tabs

Version: 2 Type: Tab 0 ratings
1 star 2 stars 3 stars 4 stars 5 stars
comments

Traffic In The Sky Tab

The other intro contained some notes that were inaccurate, so I'll show how I play it.

Standard tuning.
[ Tab from: http://www.guitartabs.cc/tabs/j/jack_johnson/traffic_in_the_sky_tab_ver_2.html ]
e--------------------------------------------------------------|
B--7---7-----------10----10---------5---5------------8---8-----|
G---7---7------------9-----9---------5---5------------7---7----|
D----7---7------------11----11--------5---5------------9---9---|
A-5-------------5/9----------------3--------------3/7----------|
E--------------------------------------------------------------|

Then I also have an easier way to play it, like this:

e---2--2----------5--5--------0--0--------3--3-----------------|
B----3--3----------5--5--------1--1--------3--3----------------|
G-----2--2----------6--6--------0--0--------4--4---------------|
D--0------------0/4----------------------2----------2----------|
A----------------------------3---------------------------------|
E--------------------------------------------------------------|

Just repeat
Comments