Jack Johnson - Taylor Chords & Tabs

 

Taylor Chords & Tabs

Jack Johnson Chords & Tabs

Version: 6 Type: Tab 0 ratings
1 star 2 stars 3 stars 4 stars 5 stars
comments

Taylor Tab

   
TAYLOR
As recorded by Jack Johnson
(From the 2003 Album ON AND ON)


Transcribed by Matheus Bonato

 Words and Music by Jack Johnson

This one is 99% accurate. The intro is a bit tricky till you get the right timing. Thats about it. Enjoy... 

x 3 2 0 1 0 C
3 x 0 0 3 3 G5
x 0 2 2 1 0 Am 
x x 3 2 1 0 Fmaj7 
x 3 2 0 1 x C (type 2)
x 5 4 0 3 x Dadd4
x 8 7 0 6 x Fadd2
x 10 9 0 8 x G 



      Intro
     C5                                  F5
  Gtr I
|----|---------------------------------|--------------------------|
|----|---------------------------------|--------------------------|
|----|---------------------------------|--------------------------|
|----|-----x-x-x-----------------------|-----x-x-x----------------|
|--0-|-1h3-x-x-x-1h3p1---1-(1)-1-------|-----x-x-x-------1--2--0--|
|----|-----------------3---------2p1-0-|-1-1-------1h2h3----------|


  C5                            F5
|-----------------------------|----------------------------------|
|-----------------------------|----------------------------------|
|-----------------------------|----------------------------------|
|-----x-x-x-1h3p1---1p0-------|-----x-x-x------------------------|
|-1h3-x-x-x-------3-----3p0---|-----x-x-x-----1-----1-----1------|
|---------------------------0-|-1-1-------1h3---1h3---1h3---1-1--|


  C5                             F7
|------------------------------|----------------------|
|------------------------------|-----x-x-4-(4)--x-----|
|----------------0-------------|-----x-x-2-(2)--x-----|
|----x-3-3s5-(5)---3p0-2p0-----|------------------0-0-|
|-3--x---------------------0---|-3-3--------------0-0-|
|----------------------------0-|-1-1------------------|


  C                                  Fmaj7
|----0-0-0-(0)-(0)-0-0-0-0-0-------|-0----|
|-1--1-3-3s=5--(5)-5-3-3-1-1-----1-|-1----|
|-0--0-0-0-(0)-(0)-0-0-0-0-0-2p0---|-2----|
|-2--------------------------------|-3----|
|-3--------------------------------|------|
|----------------------------------|------|

Verse
    C                 G/B
||--------------------------------------|
||o-------------------------------------|
||--------------------------------------|
||--2-2-2-2-(2)-0-0-0-0-0-0-0-(0)-0-0-0-|
||o-3-3-3-3-(3)-0-0-0-2-2-2-2-(2)-0-0-0-|
||--------------------------------------|


  A5                F5
 -----------------------------------|
                                        8x
|---------------------------------------||
|--------------------------------------o||
|---------------------------------------||
|-2-2-2-2-(2)-0-0-0-3-3-3-3-(3)-0-0-0---||
|-0-0-0-0-(0)-0-0-0-3-3-3-3-(3)-0-0-0--o||
|---------------------------------------||


   Chorus
    C               G5
||--------------------------------------|
||o-------------------------------------|
||--------------------------------------|
||--2-2-2-2-(2)-0-0-0-0-0-0-0-(0)-0-0-0-|
||o-3-3-3-3-(3)-0-0-0-2-2-2-2-(2)-0-0-0-|
||--------------------------------------|


  Am              Fmaj7
                                        3x
|---------------------------------------||
|--------------------------------------o||
|---------------------------------------||
|-2-2-2-2-(2)-0-0-0-3-3-3-3-(3)-0-0-0---||
|-0-0-0-0-(0)-0-0-0-3-3-3-3-(3)-0-0-0--o||
|---------------------------------------||

[ Tab from: http://www.guitartabs.cc/tabs/j/jack_johnson/taylor_tab_ver_6.html ]
  C               G5                    Am
|-------------------------------------|-------------|
|-------------------------------------|-------------|
|-------------------------------------|-------------|
|-2-2-2-2-(2)-0-0-0-0-0-0-0-(0)-0-0-0-|-2-------0-0-|
|-3-3-3-3-(3)-0-0-0-2-2-2-2-(2)-0-0-0-|-0-------0-0-|
|-------------------------------------|-------------|


   Interlude
||--------------------------------------|
||o-------------------------------------|
||--------------------------------------|
||--2-2-2-2-(2)-0-0-0-0-0-0-0-(0)-0-0-0-|
||o-3-3-3-3-(3)-0-0-0-2-2-2-2-(2)-0-0-0-|
||--------------------------------------|


|---------------------------------------||
|--------------------------------------o||
|---------------------------------------||
|-2-2-2-2-(2)-0-0-0-3-3-3-3-(3)-0-0-0---||
|-0-0-0-0-(0)-0-0-0-3-3-3-3-(3)-0-0-0--o||
|---------------------------------------||


||--------------------------------------|
||o-------------------------------------|
||--------------------------------------|
||--2-2-2-2-(2)-0-0-0-0-0-0-0-(0)-0-0-0-|
||o-3-3-3-3-(3)-0-0-0-2-2-2-2-(2)-0-0-0-|
||--------------------------------------|


                                        4x
|---------------------------------------||
|--------------------------------------o||
|---------------------------------------||
|-2-2-2-2-(2)-0-0-0-3-3-3-3-(3)-0-0-0---||
|-0-0-0-0-(0)-0-0-0-3-3-3-3-(3)-0-0-0--o||
|---------------------------------------||


   Bridge
    C(type 2)             Dadd4
||--------------------------------------|
||o-------------------------------------|
||--------------------------------------|
||--2-2-2-2-(2)-0-0-4-(4)-4-4-4-4-0-0-0-|
||o-3-3-3-3-(3)-0-0-5-(5)-5-5-5-5-0-0-0-|
||--------------------------------------|


    Fadd2                 G
|---------------------------------------------||
|--------------------------------------------o||
|---------------------------------------------||
|-7-7-7-7-(7)-0-0--9--(9)--9--9--9--9-0-0-0---||
|-8-8-8-8-(8)-0-0-10-(10)-10-10-10-10-0-0-0--o||
|---------------------------------------------||


      Final Part
                           C5                              F5
|----|---------------------------------|--------------------------|
|----|---------------------------------|--------------------------|
|----|---------------------------------|--------------------------|
|----|-----x-x-x-----------------------|-----x-x-x----------------|
|--0-|-1h3-x-x-x-1h3p1---1-(1)-1-------|-----x-x-x-------1--2--0--|
|----|-----------------3---------2p1-0-|-1-1-------1h2h3----------|


  C5                            F5
|-----------------------------|----------------------------------|
|-----------------------------|----------------------------------|
|-----------------------------|----------------------------------|
|-----x-x-x-1h3p1---1p0-------|-----x-x-x------------------------|
|-1h3-x-x-x-------3-----3p0---|-----x-x-x-----1-----1-----1------|
|---------------------------0-|-1-1-------1h3---1h3---1h3---1-1--|


  C5                             F7
|------------------------------|----------------------|
|------------------------------|-----x-x-4-(4)--x-----|
|----------------0-------------|-----x-x-2-(2)--x-----|
|----x-3-3s5-(5)---3p0-2p0-----|------------------0-0-|
|-3--x---------------------0---|-3-3--------------0-0-|
|----------------------------0-|-1-1------------------|

  C                                  Fmaj7
|----0-0-0-(0)-(0)-0-0-0-0-0-------|-0----*|
|-1--1-3-3s=5--(5)-5-3-3-1-1-----1-|-1----*|
|-0--0-0-0-(0)-(0)-0-0-0-0-0-2p0---|-2----*|
|-2--------------------------------|-3----*|
|-3--------------------------------|------*|
|----------------------------------|------*|
Comments