Jack Johnson - Taylor Chords & Tabs

 

Taylor Chords & Tabs

Jack Johnson Chords & Tabs

Version: 5 Type: Tab 0 ratings
1 star 2 stars 3 stars 4 stars 5 stars
comments

Taylor Tab

   
#----------------------------------PLEASE NOTE---------------------------------#
#This file is the author's own work and represents their interpretation of the #
#song. You may only use this file for private study, scholarship, or research. #
#------------------------------------------------------------------------------##

Tabbed by David Bédard-Barrette, McGill University, Canada, May 2003
davidbarrette@videotron.ca

Here is one of the new songs on the Jack Johnson CD: On And On.
Really cool song; no capo & standard tuning. Please, listen carefully to the intro
before saying that is it not accurate. Any corrections are welcome! 
e-mail:davidbarrette@videotron.ca



Song: Taylor
Band: Jack Johnson
Album: On And On
Composers: Jack Johnson
Version: Album version



Intro
-----

e-------x----------------------x-----------------x-----------------------x
B-------x----------------------x-----------------x-----------------------x
G-------x----------------------x-----------------x-----------------------x
D-------x----------------------x-----------------x-1h3p1---1-0-----------x
A-0-1h3-x-1h3p1--1-1-----------x-------1-2-1-2s3-x-------3-----3-0-0-----x
E-------x------3-----3p2p0-1-1-x-1h2h3-----------x-------------------1-1-x

e-------------------------------x-------------------------x--x--x--------x
b-------------------------------x-------------------------x--x--x---4----x
G-------------------------------x-------------------------x--x--x---2----x
D-------------------------------x-3-3/5-5-3p0-2p0---------x--x--x--------x
A-----1-----1-----1-----1-----3-x-----------------0-0-----x--x--x--------x
E-1h3---1h3---1h3---1h3---1-1---x---------------------1-1-x--x--x--------x

e----------0--0----x--x--x--x--x--x--------x---x
B----------1--1/3--5--5--3--3--1--1--2p0h2-1---x
G-------0--0--0----0--0--0--0--0--0--------2---x
D-------3-----/5---x--x--x--x--x--x--------3---x
A--0-0--2-----/4---x--x--x--x--x--x--------3---x
E------------------x--x--x--x--x--x--------x---x


Riff 01
-------

    C       C/B     Am       F

e--------x-------x-------x-------x----|
B--11111-x-11111-x-11111-x-------x----|
G--00000-x-00000-x-00000-x-22222-x----|
D--22222-x-00000-x-22222-x-33333-x----|
A--33333-x-22222-x-00000-x-33333-x----|
E--------x-------x-------x-11111-x----|


Tip: To reproduce the same effect, use a palm mute strumming pattern.


Riff 02
-------
[ Tab from: http://www.guitartabs.cc/tabs/j/jack_johnson/taylor_tab_ver_5.html ]
e----------------------------------------------------x
B--1-1-1-1--1/3--3-3-3--3/6--6-6-6--6/8--8--8--8--8--x
G--0-0-0-0--0/0--0-0-0--0/0--0-0-0--0/0--0--0--0--0--x
D--2-2-2-2--2/4--4-4-4--4/7--7-7-7--7/9--9--9--9--9--x
A--3-3-3-3--3/5--5-5-5--5/8--8-8-8--8/10-10-10-10-10-x
E----------------------------------------------------x


Song & Lyrics
-------------

1st Verse
---------

Riff 01
Taylor was a good girl

never one to be late
                                    Riff 01
complain express ideas in her brain
Riff 01
Workin on the night shift

passin out the tickets

you're gonna have to pay her 
                          Riff 01
if you want to park here.
Riff 01
Well mommy's little dancer's

quite a little secret

workin on the streets now
                    Riff 01
never gonna keep it.
Riff 01
It's quite an imposition

And now she's only wishin'

That she would have listened
                       Riff 01
To the words they said.

Poor Taylor.


Chorus
-------

Riff 01
Well she just wonders around

uneffected by
Riff 01
the winter winds, yeah

and she'll pretend that
Riff 01
well she's somewhere else

so far and clear
Riff 01                  Am
about 2,000 miles from here.


2nd Verse
---------
Peter Patrick pitter patters on the window
And Sunny's silhouette won't let him in
and poor old Pete's got nothin 'cause he's been fallin'
but somehow Sunny knows just where he's been
He thinks that singin' on a Sunday's gunna save his soul
but now that Saturday's gone
Well somehow he thinks that he's on his way
but I can see, that his break lights are on

Chorus
------

And he just wonders around
uneffected by
the winter winds, yeah
and he'll pretend that
well he's somewhere else
so far and clear
about 2,000 miles from here.

3rd Verse
---------

She's such a tough enchilada
filled up with nada
givin' what she got to give to get dollar bills
she used to be a limber chick
time's a been tickin'
now she's finger lickin to the man
with the money in his pockets
flyin in his rocket
                                       Riff 02
only stoppin by on his way to a better world
                         Riff 02
if Taylor finds a better world
                     Intro
Taylor's gunna run away


The song ends with the intro.

------------------------------------------------------------------------------------
That's it ! Comments are welcome ! --- "CHICKITY CHINA, THE CHINESE CHICKEN" --Bnl--
Comments