Jack Johnson - Surf Song Chords & Tabs

 

Surf Song Chords & Tabs

Jack Johnson Chords & Tabs

Version: 1 Type: Tab 0 ratings
1 star 2 stars 3 stars 4 stars 5 stars
comments

Surf Song Tab

   
Jack Johnson ft. G-Love – Surf Song
by:gonza
gserradasduarte@hotmail.com
[ Tab from: http://www.guitartabs.cc/tabs/j/jack_johnson/surf_song_tab.html ]
The music is all the same :
     C#m                F#                  A                   G#
E|----4-----------------2-------------------5-------------------4--------------------------|
B|----5-----------------2-------------------5-------------------4--------------------------|
G|----4-----------------3-------------------6-------------------5--------------------------|
D|----6-----------------2-------------------5-------------------4--------------------------|
A|----4-----------------4-------------------7-------------------6--------------------------|
E|----4-----------------2-------------------5-------------------4--------------------------|

Solo
E|-----------------------------------------------|-----------------------------------------|
B|------------7---------9------7-----------------|-----------7--------7b-------7-----------|
G|-------9--------9------------------9-------6---|------9--------9-------------------9-----|
D|-----------------------------------------------|-----------------------------------------|
A|-----------------------------------------------|-----------------------------------------|
E|-----------------------------------------------|-----------------------------------------|

One of my Jack Johnson’s favorite songs.. Play it along whit the music and you’ll see...
Check out my other tabs... See you soon.
Gonza
Comments