Jack Johnson - Sitting, Waiting, Wishing Chords & Tabs

 

Sitting, Waiting, Wishing Chords & Tabs

Jack Johnson Chords & Tabs

Version: 1 Type: Bass Tab 0 ratings
1 star 2 stars 3 stars 4 stars 5 stars
comments

Sitting, Waiting, Wishing Bass Tab

   
Sitting, Waiting, Wishing by Jack Johnson

Sit out the first verse and chorus and then come in with:

Verse 2
G--------------------------------------------------------|
D--------------------------------------------------------|
A------------------------------333333-5------ repeat x3 -|
E-55-5555-5533-3333-33111111-11--------------------------|

Chorus 2
G---------------------------------------------------------|
D-------------------------------------------- repeat x2 --|
A-222-22-222-22-222-22-222-22-555-55-555-55-555-55-555-55-|
E---------------------------------------------------------|
[ Tab from: http://www.guitartabs.cc/tabs/j/jack_johnson/sitting_waiting_wishing_btab.html ]
Bridge
G---------------------------------------------------------|
D-------------------------------------------- repeat x2 --|
A-333-33-333-33-222-22-222-22-555-55-555-55-777-77-777-77-|
E---------------------------------------------------------|

Verse 3
G--------------------------------------------------------|
D--------------------------------------------------------|
A------------------------------333333-5------ repeat x4 -|
E-55-5555-5533-3333-33111111-11--------------------------|


Chorus 3 (to outro)
G---------------------------------------------------------|
D-------------------------------------------- repeat x4 --|
A-222-22-222-22-222-22-222-22-555-55-555-55-555-55-555-55-|
E---------------------------------------------------------|

Outro
G--------------------------------------------------------|
D--------------------------------------------------------|
A-5-0~---------------------------------------------------|
E--------------------------------------------------------|
Comments