Jack Johnson - Posters Chords & Tabs

 

Posters Chords & Tabs

Jack Johnson Chords & Tabs

Version: 1 Type: Tab 1 rating
1 star 2 stars 3 stars 4 stars 5 stars
comments

Posters Tab

   
 Song:Posters
Artist:Jack Johnson
 Album:Brushfire Fairytails

Here is the real way to play it 
If anyone lives in Baton Rouge and plays bass or drums, 
your not in a band, and are normal give me a message my 
user name is Acousticuser


INTRO

E-----5------------5-|----7---9h12p9----------------|
B-----5------------5-|----7----------12--9h12p9-----|
G--6-----6-6--6-6----|-8------------------------11--|
D--7-----7-7--7-7----|-9----------------------------|
A--7-----7-7--7-7----|-9----------------------------|
E--5-----5-5--5-5----|-7----------------------------|
   A                   B


E----------------------|---------------------|
B----------------------|---------------------|
G----------------------|---------------------|
D-9--9h11p9----9--99-9-|-9/11-11--14-13-11-9-|
A-0---------11---------|---------------------|
E-0---------------77-7-|-7/9--9---12-11-9--7-|

E----------------------|------------------|
B----------------------|------------------|
G----------------------|------------------|
D-9--9h11p9----9--99-9-|-9/11-11--5-5-5/7-|
A-0---------11---------|------------------|
E-0---------------77-7-|-7/9--9---3-3-3/5-|

e--------------
b--------------
g--9--9--9--9--           Looking at himself...
d--9--9--9--9--
a--7-----------
e--0--7--9--7-- x4
[ Tab from: http://www.guitartabs.cc/tabs/j/jack_johnson/posters_tab.html ]
e--5--7----------------------
b--5--7----------------------
g--6--8--9-----------99--9--9            He gets his courage...
d--5--7--9-9h11p9--9-99--9--9
a--7--9--7-9-----11----------
e--5--7--0-----------77--9--7 x2

e--------------
b--------------
g--9--9--9--9--           Looking at herself...
d--9--9--9--9--
a--7-----------
e--0--7--9--7-- x4

e--5--7----------------------
b--5--7----------------------
g--6--8--9-----------99--9--9             All caught up...
d--5--7--9-9h11p9--9-99--9--9
a--7--9--7-9-----11----------
e--5--7--0-----------77--9--7 x2

e------------
b------------
g--9--7--6--4             And if it ain't this...
d--9--7--6--4
a--7--5--4--2
e--0--------- x2

e-----------------------------------------------------------------------
b-----------------------------------------------------------------------
g--9------------------------------------9-------------------------------
d--9-9h11p9--9-99--9/11-11--14-13-11-9--9--9h11p9--9-99--9/11-11-5-5/7--
a--7-9-----11---------------------------7--9-----11---------------------
e--------------77--7/9--9---12-11-9--7--0------------77--7/9--9--3-3/5--

e--------------
b--------------
g--9--9--9--9--            Well I'm an energetic...
d--9--9--9--9--
a--7-----------
e--0--7--9--7--  x3

e--5--7----------------------
b--5--7----------------------
g--6--8--9-----------99--9--9           Here comes another one...
d--5--7--9-9h11p9--9-99--9--9
a--7--9--7-9-----11----------
e--5--7--0-----------77--9--7

e--------------
b--------------
g--9--9--9--9--              Laughing at himself...
d--9--9--9--9--
a--7-----------
e--0--7--9--7--


There ya go
there is the real song
peace out 
Comments