Jack Johnson - Poor Taylor Chords & Tabs

 

Poor Taylor Chords & Tabs

Jack Johnson Chords & Tabs

Version: 3 Type: Tab 0 ratings
1 star 2 stars 3 stars 4 stars 5 stars
comments

Poor Taylor Tab

   
Here is another great song written and performed by the one and only Jack Johnson. As 
as I heard the song, I wanted to know it. It is such an enticing into.
Jack is known to slap the strings in the middle of the song to add a little bit of a 
so to mark that I will put a \ to mark when he slaps his guitar.

Intro:
e:---------\-------------------------\-----------------\--|
B:---------\-------------------------\-----------------\--|
G:---------\-------------------------\-----------------\--|
D:---------\-------------------------\-----------------\--|
A:--1-1h3--\--1h3p1---1p0------------\-----1-2--2-2h3--\--|
E:---------\--------3-----3p0---1-1--\--1h3------------\--|
[ Tab from: http://www.guitartabs.cc/tabs/j/jack_johnson/poor_taylor_tab_ver_3.html ]
e:------------------------\---------------------------\--|
B:------------------------\--- *this part is played --\--|
G:------------------------\---  really fast*        --\--|
D:--1h3p1---1p0-----------\---------------------------\--|
A:--------3-----3p0-------\-----1----1----1----1h3----\--|
E:-------------------1-1--\--1h3--1h3--1h3--1h3-------\--|

e:-------------------------------\------------------------------------|
B:-------------------------------\--4-------1--1-1/3--6-6---3-3--1----|
G:-------------------------------\--2-------0--0-0/0--0-0---0-0--2----|
D:--3--/5-5--3--3--2--2----------\--3-------2--2-2/4--7-7---4-4--3----|
A:----------------------0h3------\----------3--3-3/5--8-8---5-5--3----|
E:--------------------------1-1--\------------------------------------|

And just incase someone was wondering about the erst of the song...
Jack uses these chords for the verses, and I think the chorus as well.
But for the Verses, just mute it and pick at it working from low to high and low again.
     C   C\B    Am   F
e:-------------------1----|
B:---1----3------1---1----|
G:---0----0------2---2----|
D:---2----0------2---3----|
A:---3----2------0---3----|
E:-------------------1----|

Any questions or comments, email me at swillson585@hotmail.com
Comments