Jack Johnson - No Other Way Chords & Tabs

 

No Other Way Chords & Tabs

Jack Johnson Chords & Tabs

Version: 4 Type: Tab

No Other Way Tab

I used one of the other tabs on here to get a base idea.
It had the right idea, but there was still some stuff
left out/incorrect. The only part i'm not positive about
is the intro, other than that this should be pretty accurate.
All fret numbers relative to capo.

Drop D tuning, capo on 3rd fret.

Intro

e|-------------------------------------------------------|
B|-------------------------------------------------------|
G|-7h9-7h9-7-7--7h9-7h9-7-7---7--7h9-7h9-7-7--7h9-7h9-7--|
D|----------9--------------7h9------------9------------9-|
A|-5---5--------5---5------------5---5--------5---5-----5|
E|-------------------------------------------------------|

e|-----------------------------------------------------|
B|-----------------------------------------------------|
G|------7------------------------7---------------------|
D|---7/9--9-9-----7\4---------7/9--9-9------7\4--------|                   
A|-------------7/9-----5-5--------------7/9------5-5---|
D|-0-------0--0---------0--0--------0--0----------0----|

e|-----------------------------------------------------|
B|-----------------------------------------------------|
G|------0------------------------7---------------------|
D|---7/9--9-9-----7\4---------7/9--9-9------7\4--------|                   
A|-------------7/9-----5-5--------------7/9------5-5---|
D|-0-------0--0---------0--0--------0--0----------0----|


Verse (X3)

e|------------------------------------------------|
B|------------------------------------------------|
G|------------------------------------------------|
D|------4----4----4/2-0--------5----5----5--------|
A|----5----5----5-------0----5----5----5----5-5---|
D|---0-0----0----0-----0----5-5----5----5----5----|
[ Tab from: http://www.guitartabs.cc/tabs/j/jack_johnson/no_other_way_tab_ver_4.html ]
e|-----------------------/--------------------------|
B|-----------------------/--------------------------|
G|-----------------------/--------------------------|
D|------2----2----2------/-----5----5----5----------|
A|----2----2----2----2-2-/---5----5----5----5-5-----|
D|---2-2----2----2----2--/--5-5----5----5----5------|


Chorus

e|--------------------------|
B|--------------------------|
G|--------------------------|
D|----4--------7/5-0--------| X3 then
A|--5----5-5----------5-5---|
D|-0-0----0-0--------5-5----|

e|-----------------------/--------------------------|
B|-----------------------/--------------------------|
G|-----------------------/--------------------------|
D|------2----2----2------/-----5----5----5----------|
A|----2----2----2----2-2-/---5----5----5----5-5-----|
D|---2-2----2----2----2--/--5-5----5----5----5------|




e|-----------------------------------------------------|
B|-----------------------------------------------------|
G|------0------------------------7---------------------|
D|---7/9--9-9-----7\4---------7/9--9-9------7\4--------|                   
A|-------------7/9-----5-5--------------7/9------5-5---|
D|-0-------0--0---------0---0-------0--0----------0----|

e|------------------------------------------------------|
B|------------------------------------------------------|
G|------9\7-----------------------7---------------------|
D|---7/9---9-9-----7\4---------7/9--9-9------7\4--------|                   
A|--------------7/9-----5-5--------------7/9------5-5---|
D|-0--------0--0---------0--0--------0--0----------0----|


Verse (X2)

Chorus


e|-----------------------------------------------------|
B|-----------------------------------------------------|
G|------0------------------------7---------------------|
D|---7/9--9-9-----7\4---------7/9--9-9------7\4--------|                   
A|-------------7/9-----5-5--------------7/9------5-5---|
D|-0-------0--0---------0---0-------0--0----------0----|

e|------------------------------------------------------|
B|------------------------------------------------------|
G|------0-------------------------7---------------------|
D|---7/9---9-9-----7\4---------7/9--9-9------7\4----4---|                   
A|--------------7/9-----5-5--------------7/9------5-----|
D|-0--------0--0---------0--0--------0--0----------0-0--|