Jack Johnson - High Tide Or Low Tide Chords & Tabs

 

High Tide Or Low Tide Chords & Tabs

Jack Johnson Chords & Tabs

Version: 1 Type: Bass Tab 0 ratings
1 star 2 stars 3 stars 4 stars 5 stars
comments

High Tide Or Low Tide Bass Tab

   
Standard Tuning

/ = slide up

Main Bit - goes with "In high seas and low seas..."

G|-------------------------|
D|-------------------------|
A|-8---5---------------8-8-|
E|---8---5-6-6-5-5-6-6-----|


Other bit - Instrumental, then "I heard her praying..."
[ Tab from: http://www.guitartabs.cc/tabs/j/jack_johnson/high_tide_or_low_tide_btab.html ]
G|---------------------------------|
D|---------------------------------|
A|-5-5-5-5-5-5-5-5-5-5-5-5-5-5-5-5-|
E|---------------------------------|

G|---------------------------------|
D|---------------------------------|
A|-5-5----35-5------------35-5-5-5-|
E|-----3-3-----3-3-5-5-5-5---------|

G|---------------------------|
D|---------------------------|
A|-5-5----35-5---------------|
E|-----3-3-----3-3-3-3/6-8-8-|
Comments